  0
SECTION
  2
HEADER
  9
$ACADVER
  1
AC1009
  9
$DWGCODEPAGE
  3
ansi_1252
  9
$INSBASE
 10
0.0
 20
0.0
 30
0.0
  9
$EXTMIN
 10
6.931148409893997
 20
4.137789591836714
 30
-0.0000000000010027
  9
$EXTMAX
 10
553.031148409894
 20
429.4707263092232
 30
0.0
  9
$LIMMIN
 10
16350.0
 20
2500.0
  9
$LIMMAX
 10
20000.0
 20
5000.0
  9
$ORTHOMODE
 70
     0
  9
$REGENMODE
 70
     1
  9
$FILLMODE
 70
     1
  9
$QTEXTMODE
 70
     0
  9
$MIRRTEXT
 70
     1
  9
$DRAGMODE
 70
     2
  9
$LTSCALE
 40
1.0
  9
$OSMODE
 70
  1023
  9
$ATTMODE
 70
     1
  9
$TEXTSIZE
 40
40.0
  9
$TRACEWID
 40
1.0
  9
$TEXTSTYLE
  7
STANDARD
  9
$CLAYER
  8
FELÜLNÉZET
  9
$CELTYPE
  6
BYLAYER
  9
$CECOLOR
 62
   256
  9
$DIMSCALE
 40
1.0
  9
$DIMASZ
 40
3.302
  9
$DIMEXO
 40
1.27
  9
$DIMDLI
 40
3.75
  9
$DIMRND
 40
0.0
  9
$DIMDLE
 40
0.0
  9
$DIMEXE
 40
3.175
  9
$DIMTP
 40
0.0
  9
$DIMTM
 40
0.0
  9
$DIMTXT
 40
3.175
  9
$DIMCEN
 40
2.5
  9
$DIMTSZ
 40
0.0
  9
$DIMTOL
 70
     0
  9
$DIMLIM
 70
     0
  9
$DIMTIH
 70
     1
  9
$DIMTOH
 70
     1
  9
$DIMSE1
 70
     0
  9
$DIMSE2
 70
     0
  9
$DIMTAD
 70
     0
  9
$DIMZIN
 70
     0
  9
$DIMBLK
  1

  9
$DIMASO
 70
     1
  9
$DIMSHO
 70
     1
  9
$DIMPOST
  1

  9
$DIMAPOST
  1

  9
$DIMALT
 70
     0
  9
$DIMALTD
 70
     3
  9
$DIMALTF
 40
0.1
  9
$DIMLFAC
 40
1.0
  9
$DIMTOFL
 70
     1
  9
$DIMTVP
 40
0.0
  9
$DIMTIX
 70
     0
  9
$DIMSOXD
 70
     0
  9
$DIMSAH
 70
     0
  9
$DIMBLK1
  1

  9
$DIMBLK2
  1

  9
$DIMSTYLE
  2
ISO-25
  9
$DIMCLRD
 70
     0
  9
$DIMCLRE
 70
     0
  9
$DIMCLRT
 70
     0
  9
$DIMTFAC
 40
1.0
  9
$DIMGAP
 40
1.524
  9
$LUNITS
 70
     2
  9
$LUPREC
 70
     2
  9
$SKETCHINC
 40
1.0
  9
$FILLETRAD
 40
10.0
  9
$AUNITS
 70
     0
  9
$AUPREC
 70
     0
  9
$MENU
  1
.
  9
$ELEVATION
 40
0.0
  9
$PELEVATION
 40
0.0
  9
$THICKNESS
 40
0.0
  9
$LIMCHECK
 70
     0
  9
$CHAMFERA
 40
10.0
  9
$CHAMFERB
 40
10.0
  9
$SKPOLY
 70
     0
  9
$TDCREATE
 40
2455975.742608715
  9
$TDUPDATE
 40
2455975.742790799
  9
$TDINDWG
 40
0.0000000116
  9
$TDUSRTIMER
 40
2455975.700950729
  9
$USRTIMER
 70
     1
  9
$ANGBASE
 50
0.0
  9
$ANGDIR
 70
     0
  9
$PDMODE
 70
     0
  9
$PDSIZE
 40
-1.0
  9
$PLINEWID
 40
0.0
  9
$COORDS
 70
     1
  9
$SPLFRAME
 70
     0
  9
$SPLINETYPE
 70
     6
  9
$SPLINESEGS
 70
     8
  9
$ATTDIA
 70
     0
  9
$ATTREQ
 70
     1
  9
$HANDLING
 70
     1
  9
$HANDSEED
  5
21B6
  9
$SURFTAB1
 70
     6
  9
$SURFTAB2
 70
     6
  9
$SURFTYPE
 70
     6
  9
$SURFU
 70
     6
  9
$SURFV
 70
     6
  9
$UCSNAME
  2

  9
$UCSORG
 10
0.0
 20
0.0
 30
0.0
  9
$UCSXDIR
 10
1.0
 20
0.0
 30
0.0
  9
$UCSYDIR
 10
0.0
 20
1.0
 30
0.0
  9
$PUCSNAME
  2

  9
$PUCSORG
 10
0.0
 20
0.0
 30
0.0
  9
$PUCSXDIR
 10
1.0
 20
0.0
 30
0.0
  9
$PUCSYDIR
 10
0.0
 20
1.0
 30
0.0
  9
$USERI1
 70
     0
  9
$USERI2
 70
     0
  9
$USERI3
 70
     0
  9
$USERI4
 70
     0
  9
$USERI5
 70
     0
  9
$USERR1
 40
0.0
  9
$USERR2
 40
0.0
  9
$USERR3
 40
0.0
  9
$USERR4
 40
0.0
  9
$USERR5
 40
0.0
  9
$WORLDVIEW
 70
     1
  9
$SHADEDGE
 70
     3
  9
$SHADEDIF
 70
    70
  9
$TILEMODE
 70
     1
  9
$MAXACTVP
 70
    64
  9
$PLIMCHECK
 70
     0
  9
$PEXTMIN
 10
1.000000000000000E+20
 20
1.000000000000000E+20
 30
1.000000000000000E+20
  9
$PEXTMAX
 10
-1.000000000000000E+20
 20
-1.000000000000000E+20
 30
-1.000000000000000E+20
  9
$PLIMMIN
 10
0.0
 20
0.0
  9
$PLIMMAX
 10
420.0
 20
297.0
  9
$UNITMODE
 70
     0
  9
$VISRETAIN
 70
     1
  9
$PLINEGEN
 70
     0
  9
$PSLTSCALE
 70
     1
  0
ENDSEC
  0
SECTION
  2
TABLES
  0
TABLE
  2
VPORT
 70
     1
  0
VPORT
  2
*ACTIVE
 70
     0
 10
0.0
 20
0.0
 11
1.0
 21
1.0
 12
8199.61148344347
 22
4796.627307659493
 13
0.0
 23
0.0
 14
10.0
 24
10.0
 15
10.0
 25
10.0
 16
0.0
 26
0.0
 36
1.0
 17
0.0
 27
0.0
 37
0.0
 40
14202.51929221376
 41
1.919836956521739
 42
50.0
 43
0.0
 44
0.0
 50
0.0
 51
0.0
 71
    16
 72
  2000
 73
     1
 74
     3
 75
     0
 76
     0
 77
     0
 78
     0
  0
ENDTAB
  0
TABLE
  2
LTYPE
 70
    15
  0
LTYPE
  2
CONTINUOUS
 70
     0
  3
Solid line
 72
    65
 73
     0
 40
0.0
  0
LTYPE
  2
HIDDEN
 70
     0
  3
Hidden __ __ __ __ __ __ __ __ __ __ __ __ __ __
 72
    65
 73
     2
 40
1.905
 49
1.27
 49
-0.635
  0
LTYPE
  2
CENTERX2
 70
     0
  3
Center (2x) ________  __  ________  __  _____
 72
    65
 73
     4
 40
20.32
 49
12.7
 49
-2.54
 49
2.54
 49
-2.54
  0
LTYPE
  2
A-54643|HIDDEN
 70
    48
  3
Hidden __ __ __ __ __ __ __ __ __ __ __ __ __ __
 72
    65
 73
     2
 40
1.905
 49
1.27
 49
-0.635
  0
LTYPE
  2
A-54643|CENTERX2
 70
    48
  3
Center (2x) ________  __  ________  __  _____
 72
    65
 73
     4
 40
20.32
 49
12.7
 49
-2.54
 49
2.54
 49
-2.54
  0
LTYPE
  2
B-44563|HIDDEN
 70
    48
  3
Hidden __ __ __ __ __ __ __ __ __ __ __ __ __ __
 72
    65
 73
     2
 40
1.905
 49
1.27
 49
-0.635
  0
LTYPE
  2
B-44563|CENTERX2
 70
    48
  3
Center (2x) ________  __  ________  __  _____
 72
    65
 73
     4
 40
20.32
 49
12.7
 49
-2.54
 49
2.54
 49
-2.54
  0
LTYPE
  2
B-64529|HIDDEN
 70
    48
  3
Hidden __ __ __ __ __ __ __ __ __ __ __ __ __ __
 72
    65
 73
     2
 40
1.905
 49
1.27
 49
-0.635
  0
LTYPE
  2
B-64529|CENTERX2
 70
    48
  3
Center (2x) ________  __  ________  __  _____
 72
    65
 73
     4
 40
20.32
 49
12.7
 49
-2.54
 49
2.54
 49
-2.54
  0
LTYPE
  2
B-64543|HIDDEN
 70
    48
  3
Hidden __ __ __ __ __ __ __ __ __ __ __ __ __ __
 72
    65
 73
     2
 40
1.905
 49
1.27
 49
-0.635
  0
LTYPE
  2
B-64543|CENTERX2
 70
    48
  3
Center (2x) ________  __  ________  __  _____
 72
    65
 73
     4
 40
20.32
 49
12.7
 49
-2.54
 49
2.54
 49
-2.54
  0
LTYPE
  2
A-55869|HIDDEN
 70
    48
  3
Hidden __ __ __ __ __ __ __ __ __ __ __ __ __ __
 72
    65
 73
     2
 40
1.905
 49
1.27
 49
-0.635
  0
LTYPE
  2
A-55869|CENTERX2
 70
    48
  3
Center (2x) ________  __  ________  __  _____
 72
    65
 73
     4
 40
20.32
 49
12.7
 49
-2.54
 49
2.54
 49
-2.54
  0
LTYPE
  2
B-89987|HIDDEN
 70
    48
  3
Hidden __ __ __ __ __ __ __ __ __ __ __ __ __ __
 72
    65
 73
     2
 40
1.905
 49
1.27
 49
-0.635
  0
LTYPE
  2
B-89987|CENTER
 70
    48
  3
Center ____ _ ____ _ ____ _ ____ _ ____ _ ____
 72
    65
 73
     4
 40
10.16
 49
6.35
 49
-1.27
 49
1.27
 49
-1.27
  0
ENDTAB
  0
TABLE
  2
LAYER
 70
    57
  0
LAYER
  2
0
 70
     0
 62
     7
  6
CONTINUOUS
  0
LAYER
  2
TALAJSZINT
 70
     0
 62
     4
  6
CONTINUOUS
  0
LAYER
  2
ZARTSZELVENYEK
 70
     0
 62
    -3
  6
CONTINUOUS
  0
LAYER
  2
KONFUZOR
 70
     0
 62
     5
  6
CONTINUOUS
  0
LAYER
  2
FA_SZERKEZETI_ELEMEK
 70
     0
 62
     5
  6
CONTINUOUS
  0
LAYER
  2
NYITHATO_ABLAKOK
 70
     0
 62
     5
  6
CONTINUOUS
  0
LAYER
  2
DIFFUZOR
 70
     0
 62
     5
  6
CONTINUOUS
  0
LAYER
  2
B-44563|OBJECT
 70
    48
 62
     7
  6
CONTINUOUS
  0
LAYER
  2
B-44563|HIDDEN
 70
    48
 62
     7
  6
CONTINUOUS
  0
LAYER
  2
B-44563|CENTERLINE
 70
    48
 62
     7
  6
CONTINUOUS
  0
LAYER
  2
B-44563|DIM
 70
    48
 62
     7
  6
CONTINUOUS
  0
LAYER
  2
B-44563|TITLEBLOCK
 70
    48
 62
     7
  6
CONTINUOUS
  0
LAYER
  2
A-53345|OBJECT
 70
    16
 62
     7
  6
CONTINUOUS
  0
LAYER
  2
A-53345|HIDDEN
 70
    16
 62
     7
  6
CONTINUOUS
  0
LAYER
  2
A-53345|CENTERLINE
 70
    16
 62
     7
  6
CONTINUOUS
  0
LAYER
  2
A-53345|DIM
 70
    16
 62
     7
  6
CONTINUOUS
  0
LAYER
  2
A-53345|TITLEBLOCK
 70
    16
 62
     7
  6
CONTINUOUS
  0
LAYER
  2
B-76843|OBJECT
 70
    16
 62
     7
  6
CONTINUOUS
  0
LAYER
  2
B-76843|HIDDEN
 70
    16
 62
     7
  6
CONTINUOUS
  0
LAYER
  2
B-76843|CENTERLINE
 70
    16
 62
     7
  6
CONTINUOUS
  0
LAYER
  2
B-76843|DIM
 70
    16
 62
     7
  6
CONTINUOUS
  0
LAYER
  2
B-76843|TITLEBLOCK
 70
    16
 62
     7
  6
CONTINUOUS
  0
LAYER
  2
KÖZÉPVONAL
 70
     0
 62
     6
  6
CENTERX2
  0
LAYER
  2
50MM-ES_TARTÓ_ZÁRTSZELVÉNY
 70
     0
 62
     4
  6
CONTINUOUS
  0
LAYER
  2
MOTOR_SZÍJHAJTÁS
 70
     0
 62
     5
  6
CONTINUOUS
  0
LAYER
  2
MÉR_TÉR_BELSEJE
 70
     0
 62
     5
  6
HIDDEN
  0
LAYER
  2
VENTILLÁTOR_ÉS_ALKATRÉSZEI
 70
     0
 62
     5
  6
HIDDEN
  0
LAYER
  2
FA_SZERKEZETI_ELEMEK_RÖGZÍ
 70
     0
 62
     5
  6
CONTINUOUS
  0
LAYER
  2
FELÜLNÉZET
 70
     0
 62
     3
  6
CONTINUOUS
  0
LAYER
  2
DEFPOINTS
 70
     0
 62
     7
  6
CONTINUOUS
  0
LAYER
  2
A-54643|OBJECT
 70
    48
 62
     4
  6
CONTINUOUS
  0
LAYER
  2
A-54643|HIDDEN
 70
    48
 62
     3
  6
A-54643|HIDDEN
  0
LAYER
  2
A-54643|CENTERLINE
 70
    48
 62
     5
  6
A-54643|CENTERX2
  0
LAYER
  2
A-54643|DIM
 70
    48
 62
     2
  6
CONTINUOUS
  0
LAYER
  2
A-54643|TITLEBLOCK
 70
    48
 62
     6
  6
CONTINUOUS
  0
LAYER
  2
A-54643|HATCH
 70
    48
 62
     1
  6
CONTINUOUS
  0
LAYER
  2
B-64529|OBJECT
 70
    48
 62
     4
  6
CONTINUOUS
  0
LAYER
  2
B-64529|HIDDEN
 70
    48
 62
     3
  6
B-64529|HIDDEN
  0
LAYER
  2
B-64529|CENTERLINE
 70
    48
 62
     5
  6
B-64529|CENTERX2
  0
LAYER
  2
B-64529|DIM
 70
    48
 62
     2
  6
CONTINUOUS
  0
LAYER
  2
B-64529|TITLEBLOCK
 70
    48
 62
     6
  6
CONTINUOUS
  0
LAYER
  2
B-64543|OBJECT
 70
    48
 62
     4
  6
CONTINUOUS
  0
LAYER
  2
B-64543|HIDDEN
 70
    48
 62
     3
  6
B-64543|HIDDEN
  0
LAYER
  2
B-64543|CENTERLINE
 70
    48
 62
     5
  6
B-64543|CENTERX2
  0
LAYER
  2
B-64543|DIM
 70
    48
 62
     2
  6
CONTINUOUS
  0
LAYER
  2
B-64543|TITLEBLOCK
 70
    48
 62
     6
  6
CONTINUOUS
  0
LAYER
  2
B-64543|HATCH
 70
    48
 62
     1
  6
CONTINUOUS
  0
LAYER
  2
A-55869|OBJECT
 70
    48
 62
     4
  6
CONTINUOUS
  0
LAYER
  2
A-55869|HIDDEN
 70
    48
 62
     3
  6
A-55869|HIDDEN
  0
LAYER
  2
A-55869|CENTERLINE
 70
    48
 62
     5
  6
A-55869|CENTERX2
  0
LAYER
  2
A-55869|DIM
 70
    48
 62
     2
  6
CONTINUOUS
  0
LAYER
  2
A-55869|TITLEBLOCK
 70
    48
 62
     6
  6
CONTINUOUS
  0
LAYER
  2
B-89987|OBJECT
 70
    48
 62
     4
  6
CONTINUOUS
  0
LAYER
  2
B-89987|HIDDEN
 70
    48
 62
     3
  6
B-89987|HIDDEN
  0
LAYER
  2
B-89987|CENTERLINE
 70
    48
 62
     5
  6
B-89987|CENTER
  0
LAYER
  2
B-89987|DIM
 70
    48
 62
     2
  6
CONTINUOUS
  0
LAYER
  2
B-89987|TITLEBLOCK
 70
    48
 62
     6
  6
CONTINUOUS
  0
ENDTAB
  0
TABLE
  2
STYLE
 70
     3
  0
STYLE
  2
STANDARD
 70
     0
 40
0.0
 41
1.0
 50
0.0
 71
     0
 42
40.0
  3
txt
  4

  0
STYLE
  2
SLDTEXTSTYLE0
 70
     0
 40
0.0
 41
0.75
 50
0.0
 71
     0
 42
0.2
  3
TXT
  4

  0
STYLE
  2
SLDTEXTSTYLE1
 70
     0
 40
0.0
 41
0.605
 50
0.0
 71
     0
 42
0.2
  3
TXT
  4

  0
ENDTAB
  0
TABLE
  2
VIEW
 70
     0
  0
ENDTAB
  0
TABLE
  2
UCS
 70
     0
  0
ENDTAB
  0
TABLE
  2
APPID
 70
     2
  0
APPID
  2
ACAD
 70
     0
  0
APPID
  2
ACAECLAYERSTANDARD
 70
     0
  0
ENDTAB
  0
TABLE
  2
DIMSTYLE
 70
     3
  0
DIMSTYLE
  2
STANDARD
 70
     0
  3

  4

  5

  6

  7

 40
1.0
 41
0.18
 42
0.0625
 43
0.38
 44
0.18
 45
0.0
 46
0.0
 47
0.0
 48
0.0
140
0.18
141
0.09
142
0.0
143
25.4
144
1.0
145
0.0
146
1.0
147
0.09
 71
     0
 72
     0
 73
     1
 74
     1
 75
     0
 76
     0
 77
     0
 78
     0
170
     0
171
     2
172
     0
173
     0
174
     0
175
     0
176
     0
177
     0
178
     0
  0
DIMSTYLE
  2
ISO-25
 70
     0
  3

  4

  5

  6

  7

 40
1.0
 41
2.5
 42
0.625
 43
3.75
 44
1.25
 45
0.0
 46
0.0
 47
0.0
 48
0.0
140
2.5
141
2.5
142
0.0
143
0.03937007874016
144
1.0
145
0.0
146
1.0
147
0.625
 71
     0
 72
     0
 73
     0
 74
     0
 75
     0
 76
     0
 77
     1
 78
     8
170
     0
171
     3
172
     1
173
     0
174
     0
175
     0
176
     0
177
     0
178
     0
  0
DIMSTYLE
  2
SLDDIMSTYLE0
 70
     0
  3

  4

  5

  6

  7

 40
1.0
 41
3.302
 42
0.0625
 43
0.38
 44
0.0
 45
0.000000001
 46
0.0
 47
0.0
 48
0.0
140
3.302
141
0.09
142
0.0
143
25.4
144
1.0
145
0.0
146
1.0
147
0.8254999999999999
 71
     0
 72
     0
 73
     1
 74
     1
 75
     0
 76
     0
 77
     0
 78
     0
170
     0
171
     2
172
     0
173
     1
174
     0
175
     0
176
     0
177
     0
178
     0
  0
ENDTAB
  0
ENDSEC
  0
SECTION
  2
BLOCKS
  0
BLOCK
  8
0
  2
$MODEL_SPACE
 70
     0
 10
0.0
 20
0.0
 30
0.0
  3
$MODEL_SPACE
  1

  0
ENDBLK
  5
200B
  8
0
  0
BLOCK
 67
     1
  8
0
  2
$PAPER_SPACE
 70
     0
 10
0.0
 20
0.0
 30
0.0
  3
$PAPER_SPACE
  1

  0
ENDBLK
  5
2009
 67
     1
  8
0
  0
BLOCK
  8
FA_SZERKEZETI_ELEMEK
  2
BALLOON
 70
     2
 10
0.0
 20
0.0
 30
0.0
  3
BALLOON
  1

  0
CIRCLE
  5
CAA
  8
KONFUZOR
 10
0.0
 20
0.0
 30
0.0
 40
4.543068032436728
  0
ATTDEF
  5
CAB
  8
KONFUZOR
 10
-2.004
 20
-1.6
 30
0.0
 40
3.2
  1
##
 41
0.75
  7
SLDTEXTSTYLE0
 72
     4
 11
0.0
 21
0.0
 31
0.0
  3
BALLOON NUMBER
  2
NO
 70
     0
  0
ENDBLK
  5
1AC6
  8
FA_SZERKEZETI_ELEMEK
  0
BLOCK
  8
FA_SZERKEZETI_ELEMEK
  2
TITLEBLOCK-C
 70
     2
 10
0.0
 20
0.0
 30
0.0
  3
TITLEBLOCK-C
  1

  0
LINE
  5
12DE
  8
FA_SZERKEZETI_ELEMEK
 10
13.28114840989403
 20
423.17925795053
 30
0.0
 11
546.681148409894
 21
423.17925795053
 31
0.0
  0
LINE
  5
12DF
  8
FA_SZERKEZETI_ELEMEK
 10
13.28114840989403
 20
423.17925795053
 30
0.0
 11
13.28114840989403
 21
10.42925795053002
 31
0.0
  0
LINE
  5
12E0
  8
FA_SZERKEZETI_ELEMEK
 10
398.5548794804968
 20
10.42925795052997
 30
0.0
 11
398.5548794804968
 21
60.32369628363023
 31
0.0
  0
LINE
  5
12E1
  8
FA_SZERKEZETI_ELEMEK
 10
348.3352803799584
 20
60.32369628363023
 30
0.0
 11
546.681148409894
 21
60.32369628363023
 31
0.0
  0
LINE
  5
12E2
  8
FA_SZERKEZETI_ELEMEK
 10
433.6437379942533
 20
60.32369628363023
 30
0.0
 11
433.6437379942533
 21
10.42925795052997
 31
0.0
  0
LINE
  5
12E3
  8
FA_SZERKEZETI_ELEMEK
 10
476.6096605218517
 20
60.32369628363023
 30
0.0
 11
476.6096605218517
 21
10.42925795052996
 31
0.0
  0
LINE
  5
12E4
  8
FA_SZERKEZETI_ELEMEK
 10
476.6096605218515
 20
15.83655827044161
 30
0.0
 11
546.681148409894
 21
15.83655827044161
 31
0.0
  0
LINE
  5
12E5
  8
FA_SZERKEZETI_ELEMEK
 10
476.6096605218518
 20
28.71378005381382
 30
0.0
 11
546.681148409894
 21
28.71378005381383
 31
0.0
  0
LINE
  5
12E6
  8
FA_SZERKEZETI_ELEMEK
 10
522.2038964525983
 20
15.83655827044161
 30
0.0
 11
522.2038964525983
 21
10.42925795052996
 31
0.0
  0
LINE
  5
12E7
  8
FA_SZERKEZETI_ELEMEK
 10
348.3352803799584
 20
15.41463861050227
 30
0.0
 11
433.6437379942533
 21
15.41463861050227
 31
0.0
  0
LINE
  5
12E8
  8
FA_SZERKEZETI_ELEMEK
 10
433.6437379942533
 20
46.03619628363022
 30
0.0
 11
476.6096605218518
 21
46.03619628363022
 31
0.0
  0
LINE
  5
12E9
  8
FA_SZERKEZETI_ELEMEK
 10
433.6437379942533
 20
50.79869628363022
 30
0.0
 11
476.6096605218515
 21
50.79869628363022
 31
0.0
  0
LINE
  5
12EA
  8
FA_SZERKEZETI_ELEMEK
 10
433.6437379942533
 20
55.56119628363022
 30
0.0
 11
476.6096605218518
 21
55.56119628363022
 31
0.0
  0
LINE
  5
12EB
  8
FA_SZERKEZETI_ELEMEK
 10
476.6096605218515
 20
31.74869628363021
 30
0.0
 11
433.6437379942533
 21
31.7486962836302
 31
0.0
  0
LINE
  5
12EC
  8
FA_SZERKEZETI_ELEMEK
 10
464.4418167955444
 20
60.32369628363022
 30
0.0
 11
464.4418167955444
 21
31.74869628363021
 31
0.0
  0
LINE
  5
12ED
  8
FA_SZERKEZETI_ELEMEK
 10
452.5412257983511
 20
60.32369628363022
 30
0.0
 11
452.5412257983511
 21
31.7486962836302
 31
0.0
  0
LINE
  5
12EE
  8
FA_SZERKEZETI_ELEMEK
 10
398.5548794804969
 20
22.20783128919486
 30
0.0
 11
433.6437379942533
 21
22.20783128919486
 31
0.0
  0
LINE
  5
12EF
  8
FA_SZERKEZETI_ELEMEK
 10
398.5548794804969
 20
29.06583128919486
 30
0.0
 11
433.6437379942533
 21
29.06583128919486
 31
0.0
  0
LINE
  5
12F0
  8
FA_SZERKEZETI_ELEMEK
 10
348.3352803799582
 20
10.42925795052998
 30
0.0
 11
348.3352803799584
 21
60.32369628363023
 31
0.0
  0
LINE
  5
12F1
  8
FA_SZERKEZETI_ELEMEK
 10
348.3352803799582
 20
28.57369628363022
 30
0.0
 11
398.5548794804967
 21
28.57369628363022
 31
0.0
  0
LINE
  5
12F2
  8
FA_SZERKEZETI_ELEMEK
 10
348.3352803799582
 20
34.92369628363022
 30
0.0
 11
398.5548794804967
 21
34.92369628363022
 31
0.0
  0
LINE
  5
12F3
  8
FA_SZERKEZETI_ELEMEK
 10
348.3352803799582
 20
41.27369628363022
 30
0.0
 11
398.5548794804967
 21
41.27369628363022
 31
0.0
  0
LINE
  5
12F4
  8
FA_SZERKEZETI_ELEMEK
 10
348.3352803799582
 20
47.62369628363022
 30
0.0
 11
398.5548794804967
 21
47.62369628363022
 31
0.0
  0
LINE
  5
12F5
  8
FA_SZERKEZETI_ELEMEK
 10
373.6839756733012
 20
60.32369628363023
 30
0.0
 11
373.6839756733012
 21
15.41463861050227
 31
0.0
  0
LINE
  5
12F6
  8
FA_SZERKEZETI_ELEMEK
 10
433.6437379942533
 20
56.40346569495341
 30
0.0
 11
398.5548794804968
 21
56.4034656949534
 31
0.0
  0
LINE
  5
12F7
  8
FA_SZERKEZETI_ELEMEK
 10
476.6096605218518
 20
41.27369628363022
 30
0.0
 11
433.6437379942533
 21
41.27369628363021
 31
0.0
  0
LINE
  5
12F8
  8
FA_SZERKEZETI_ELEMEK
 10
476.6096605218518
 20
36.51119628363021
 30
0.0
 11
433.6437379942533
 21
36.51119628363021
 31
0.0
  0
LINE
  5
12F9
  8
FA_SZERKEZETI_ELEMEK
 10
348.3352803799582
 20
53.97369628363023
 30
0.0
 11
398.5548794804967
 21
53.97369628363023
 31
0.0
  0
LINE
  5
12FA
  8
FA_SZERKEZETI_ELEMEK
 10
398.5548794804969
 20
35.92383128919486
 30
0.0
 11
433.6437379942533
 21
35.92383128919486
 31
0.0
  0
LINE
  5
12FB
  8
FA_SZERKEZETI_ELEMEK
 10
348.3352803799582
 20
22.22369628363022
 30
0.0
 11
398.5548794804967
 21
22.22369628363022
 31
0.0
  0
LINE
  5
12FC
  8
FA_SZERKEZETI_ELEMEK
 10
480.0061484098939
 20
10.42925795052996
 30
0.0
 11
480.0061484098939
 21
8.27535812327261
 31
0.0
  0
LINE
  5
12FD
  8
FA_SZERKEZETI_ELEMEK
 10
413.331148409894
 20
10.42925795052996
 30
0.0
 11
413.331148409894
 21
8.275358123272635
 31
0.0
  0
LINE
  5
12FE
  8
FA_SZERKEZETI_ELEMEK
 10
346.6561484098939
 20
10.42925795052997
 30
0.0
 11
346.6561484098939
 21
8.27535812327272
 31
0.0
  0
LINE
  5
12FF
  8
FA_SZERKEZETI_ELEMEK
 10
213.3061484098939
 20
10.42925795052999
 30
0.0
 11
213.306148409894
 21
8.275358123270244
 31
0.0
  0
LINE
  5
1300
  8
FA_SZERKEZETI_ELEMEK
 10
13.28114840989403
 20
216.80425795053
 30
0.0
 11
6.931148409893997
 21
216.80425795053
 31
0.0
  0
LINE
  5
1301
  8
FA_SZERKEZETI_ELEMEK
 10
13.281148409894
 20
148.02105795053
 30
0.0
 11
10.106148409894
 21
148.02105795053
 31
0.0
  0
LINE
  5
1302
  8
FA_SZERKEZETI_ELEMEK
 10
13.28114840989402
 20
354.37065795053
 30
0.0
 11
10.10614840989405
 21
354.37065795053
 31
0.0
  0
LINE
  5
1303
  8
FA_SZERKEZETI_ELEMEK
 10
10.13179683230328
 20
218.4689853237378
 30
0.0
 11
10.13179683230328
 21
214.9431991801749
 31
0.0
  0
LINE
  5
1304
  8
FA_SZERKEZETI_ELEMEK
 10
10.13179683230328
 20
214.9431991801749
 30
0.0
 11
13.28114840989403
 21
216.80425795053
 31
0.0
  0
LINE
  5
1305
  8
FA_SZERKEZETI_ELEMEK
 10
13.28114840989403
 20
216.80425795053
 30
0.0
 11
10.13179683230328
 21
218.4689853237378
 31
0.0
  0
LINE
  5
1306
  8
FA_SZERKEZETI_ELEMEK
 10
10.13179683230328
 20
217.9999489310392
 30
0.0
 11
13.28114840989403
 21
216.80425795053
 31
0.0
  0
LINE
  5
1307
  8
FA_SZERKEZETI_ELEMEK
 10
10.13179683230328
 20
217.3916057979668
 30
0.0
 11
13.28114840989403
 21
216.80425795053
 31
0.0
  0
LINE
  5
1308
  8
FA_SZERKEZETI_ELEMEK
 10
10.13179683230328
 20
215.6367698371812
 30
0.0
 11
13.28114840989403
 21
216.80425795053
 31
0.0
  0
LINE
  5
1309
  8
FA_SZERKEZETI_ELEMEK
 10
10.13179683230328
 20
216.315306408685
 30
0.0
 11
13.28114840989403
 21
216.80425795053
 31
0.0
  0
LINE
  5
130A
  8
FA_SZERKEZETI_ELEMEK
 10
549.8304999874847
 20
216.315306408685
 30
0.0
 11
546.681148409894
 21
216.80425795053
 31
0.0
  0
LINE
  5
130B
  8
FA_SZERKEZETI_ELEMEK
 10
549.8304999874847
 20
215.6367698371812
 30
0.0
 11
546.681148409894
 21
216.80425795053
 31
0.0
  0
LINE
  5
130C
  8
FA_SZERKEZETI_ELEMEK
 10
549.8304999874847
 20
217.3916057979668
 30
0.0
 11
546.681148409894
 21
216.80425795053
 31
0.0
  0
LINE
  5
130D
  8
FA_SZERKEZETI_ELEMEK
 10
549.8304999874847
 20
217.9999489310392
 30
0.0
 11
546.681148409894
 21
216.80425795053
 31
0.0
  0
LINE
  5
130E
  8
FA_SZERKEZETI_ELEMEK
 10
546.681148409894
 20
216.80425795053
 30
0.0
 11
549.8304999874847
 21
218.4689853237378
 31
0.0
  0
LINE
  5
130F
  8
FA_SZERKEZETI_ELEMEK
 10
549.8304999874847
 20
214.9431991801749
 30
0.0
 11
546.681148409894
 21
216.80425795053
 31
0.0
  0
LINE
  5
1310
  8
FA_SZERKEZETI_ELEMEK
 10
549.8304999874847
 20
218.4689853237378
 30
0.0
 11
549.8304999874847
 21
214.9431991801749
 31
0.0
  0
LINE
  5
1311
  8
FA_SZERKEZETI_ELEMEK
 10
546.681148409894
 20
354.37065795053
 30
0.0
 11
549.8561484098941
 21
354.37065795053
 31
0.0
  0
LINE
  5
1312
  8
FA_SZERKEZETI_ELEMEK
 10
546.681148409894
 20
285.58745795053
 30
0.0
 11
549.8561484098941
 21
285.58745795053
 31
0.0
  0
LINE
  5
1313
  8
FA_SZERKEZETI_ELEMEK
 10
546.6811484098941
 20
79.23785795053001
 30
0.0
 11
549.8561484098941
 21
79.23785795053001
 31
0.0
  0
LINE
  5
1314
  8
FA_SZERKEZETI_ELEMEK
 10
546.6811484098941
 20
148.02105795053
 30
0.0
 11
549.8561484098941
 21
148.02105795053
 31
0.0
  0
LINE
  5
1315
  8
FA_SZERKEZETI_ELEMEK
 10
546.681148409894
 20
216.80425795053
 30
0.0
 11
553.031148409894
 21
216.80425795053
 31
0.0
  0
LINE
  5
1316
  8
FA_SZERKEZETI_ELEMEK
 10
279.9811484098939
 20
10.42925795052998
 30
0.0
 11
279.9811484098939
 21
4.137789591836714
 31
0.0
  0
LINE
  5
1317
  8
FA_SZERKEZETI_ELEMEK
 10
279.9811484098939
 20
10.42925795052998
 30
0.0
 11
278.9149790763847
 21
8.254517918367348
 31
0.0
  0
LINE
  5
1318
  8
FA_SZERKEZETI_ELEMEK
 10
278.9149790763847
 20
8.254517918367348
 30
0.0
 11
281.1017021460024
 21
8.254517918367348
 31
0.0
  0
LINE
  5
1319
  8
FA_SZERKEZETI_ELEMEK
 10
279.9811484098939
 20
10.42925795052998
 30
0.0
 11
281.1017021460024
 21
8.254517918367348
 31
0.0
  0
LINE
  5
131A
  8
FA_SZERKEZETI_ELEMEK
 10
279.9811484098939
 20
10.42925795052998
 30
0.0
 11
280.5672872872331
 21
8.25451791836735
 31
0.0
  0
LINE
  5
131B
  8
FA_SZERKEZETI_ELEMEK
 10
279.9811484098939
 20
10.42925795052998
 30
0.0
 11
279.1223878542639
 21
8.25451791836735
 31
0.0
  0
LINE
  5
131C
  8
FA_SZERKEZETI_ELEMEK
 10
279.9811484098939
 20
10.42925795052998
 30
0.0
 11
279.6172164271985
 21
8.25451791836735
 31
0.0
  0
LINE
  5
131D
  8
FA_SZERKEZETI_ELEMEK
 10
279.9811484098939
 20
10.42925795052998
 30
0.0
 11
280.309976429307
 21
8.25451791836735
 31
0.0
  0
LINE
  5
131E
  8
FA_SZERKEZETI_ELEMEK
 10
279.9811484098939
 20
423.17925795053
 30
0.0
 11
280.309976429307
 21
425.3539979826926
 31
0.0
  0
LINE
  5
131F
  8
FA_SZERKEZETI_ELEMEK
 10
279.9811484098939
 20
423.17925795053
 30
0.0
 11
279.6172164271985
 21
425.3539979826926
 31
0.0
  0
LINE
  5
1320
  8
FA_SZERKEZETI_ELEMEK
 10
279.9811484098939
 20
423.17925795053
 30
0.0
 11
279.1223878542639
 21
425.3539979826926
 31
0.0
  0
LINE
  5
1321
  8
FA_SZERKEZETI_ELEMEK
 10
279.9811484098939
 20
423.17925795053
 30
0.0
 11
280.5672872872331
 21
425.3539979826926
 31
0.0
  0
LINE
  5
1322
  8
FA_SZERKEZETI_ELEMEK
 10
279.9811484098939
 20
423.17925795053
 30
0.0
 11
281.1017021460024
 21
425.3539979826926
 31
0.0
  0
LINE
  5
1323
  8
FA_SZERKEZETI_ELEMEK
 10
278.9149790763847
 20
425.3539979826926
 30
0.0
 11
281.1017021460024
 21
425.3539979826926
 31
0.0
  0
LINE
  5
1324
  8
FA_SZERKEZETI_ELEMEK
 10
279.9811484098939
 20
423.17925795053
 30
0.0
 11
278.9149790763847
 21
425.3539979826926
 31
0.0
  0
LINE
  5
1325
  8
FA_SZERKEZETI_ELEMEK
 10
279.9811484098939
 20
423.17925795053
 30
0.0
 11
279.9811484098939
 21
429.4707263092232
 31
0.0
  0
LINE
  5
1326
  8
FA_SZERKEZETI_ELEMEK
 10
79.95614840989396
 20
423.17925795053
 30
0.0
 11
79.95614840989398
 21
425.3331577777872
 31
0.0
  0
LINE
  5
1327
  8
FA_SZERKEZETI_ELEMEK
 10
146.6311484098939
 20
423.17925795053
 30
0.0
 11
146.631148409894
 21
425.333157777788
 31
0.0
  0
LINE
  5
1328
  8
FA_SZERKEZETI_ELEMEK
 10
213.3061484098939
 20
423.17925795053
 30
0.0
 11
213.306148409894
 21
425.3331577777897
 31
0.0
  0
LINE
  5
1329
  8
FA_SZERKEZETI_ELEMEK
 10
346.6561484098939
 20
423.17925795053
 30
0.0
 11
346.6561484098939
 21
425.3331577777873
 31
0.0
  0
LINE
  5
132A
  8
FA_SZERKEZETI_ELEMEK
 10
413.331148409894
 20
423.17925795053
 30
0.0
 11
413.331148409894
 21
425.3331577777873
 31
0.0
  0
LINE
  5
132B
  8
FA_SZERKEZETI_ELEMEK
 10
480.0061484098939
 20
423.17925795053
 30
0.0
 11
480.0061484098939
 21
425.3331577777873
 31
0.0
  0
TEXT
  5
132C
  8
FA_SZERKEZETI_ELEMEK
  6
CONTINUOUS
 10
549.5517912565845
 20
251.3863726801981
 30
0.0
 40
2.381250000000023
  1
D
 41
0.75
  7
SLDTEXTSTYLE0
  0
TEXT
  5
132D
  8
FA_SZERKEZETI_ELEMEK
  6
CONTINUOUS
 10
549.2168782489326
 20
181.862387381395
 30
0.0
 40
2.381249999999994
  1
C
 41
0.75
  7
SLDTEXTSTYLE0
  0
TEXT
  5
132E
  8
FA_SZERKEZETI_ELEMEK
  6
CONTINUOUS
 10
549.9953536123273
 20
113.5891380662359
 30
0.0
 40
2.381249999999994
  1
B
 41
0.75
  7
SLDTEXTSTYLE0
  0
TEXT
  5
132F
  8
FA_SZERKEZETI_ELEMEK
  6
CONTINUOUS
 10
8.429236281980918
 20
44.15991374259324
 30
0.0
 40
2.381250000000001
  1
A
 41
0.75
  7
SLDTEXTSTYLE0
  0
TEXT
  5
1330
  8
FA_SZERKEZETI_ELEMEK
  6
CONTINUOUS
 10
8.44032430114143
 20
113.7699621508962
 30
0.0
 40
2.381249999999994
  1
B
 41
0.75
  7
SLDTEXTSTYLE0
  0
TEXT
  5
1331
  8
FA_SZERKEZETI_ELEMEK
  6
CONTINUOUS
 10
8.159278170839993
 20
182.1315576304192
 30
0.0
 40
2.381249999999994
  1
C
 41
0.75
  7
SLDTEXTSTYLE0
  0
TEXT
  5
1332
  8
FA_SZERKEZETI_ELEMEK
  6
CONTINUOUS
 10
8.23217631933064
 20
251.5803186581913
 30
0.0
 40
2.381250000000023
  1
D
 41
0.75
  7
SLDTEXTSTYLE0
  0
TEXT
  5
1333
  8
FA_SZERKEZETI_ELEMEK
  6
CONTINUOUS
 10
513.1382187243061
 20
5.949917801370756
 30
0.0
 40
2.38125
  1
1
 41
0.75
  7
SLDTEXTSTYLE0
  0
TEXT
  5
1334
  8
FA_SZERKEZETI_ELEMEK
  6
CONTINUOUS
 10
446.3531965013574
 20
5.949917801370741
 30
0.0
 40
2.38125
  1
2
 41
0.75
  7
SLDTEXTSTYLE0
  0
TEXT
  5
1335
  8
FA_SZERKEZETI_ELEMEK
  6
CONTINUOUS
 10
379.4896922876119
 20
5.949917801370756
 30
0.0
 40
2.38125
  1
3
 41
0.75
  7
SLDTEXTSTYLE0
  0
TEXT
  5
1336
  8
FA_SZERKEZETI_ELEMEK
  6
CONTINUOUS
 10
314.1461131159651
 20
6.0512698816061
 30
0.0
 40
2.38125
  1
4
 41
0.75
  7
SLDTEXTSTYLE0
  0
TEXT
  5
1337
  8
FA_SZERKEZETI_ELEMEK
  6
CONTINUOUS
 10
245.3149424174924
 20
6.051269881606059
 30
0.0
 40
2.38125
  1
5
 41
0.75
  7
SLDTEXTSTYLE0
  0
TEXT
  5
1338
  8
FA_SZERKEZETI_ELEMEK
  6
CONTINUOUS
 10
180.1708543408446
 20
6.031845383705321
 30
0.0
 40
2.38125
  1
6
 41
0.75
  7
SLDTEXTSTYLE0
  0
TEXT
  5
1339
  8
FA_SZERKEZETI_ELEMEK
  6
CONTINUOUS
 10
112.2290208093997
 20
6.045395223790489
 30
0.0
 40
2.38125
  1
7
 41
0.75
  7
SLDTEXTSTYLE0
  0
TEXT
  5
133A
  8
FA_SZERKEZETI_ELEMEK
  6
CONTINUOUS
 10
44.08792870902189
 20
6.031845383705361
 30
0.0
 40
2.38125
  1
8
 41
0.75
  7
SLDTEXTSTYLE0
  0
TEXT
  5
133B
  8
FA_SZERKEZETI_ELEMEK
  6
CONTINUOUS
 10
45.72281413285889
 20
425.6767620335755
 30
0.0
 40
2.381250000000023
  1
8
 41
0.75
  7
SLDTEXTSTYLE0
  0
TEXT
  5
133C
  8
FA_SZERKEZETI_ELEMEK
  6
CONTINUOUS
 10
111.33437548862
 20
425.672627201292
 30
0.0
 40
2.381250000000023
  1
7
 41
0.75
  7
SLDTEXTSTYLE0
  0
TEXT
  5
133D
  8
FA_SZERKEZETI_ELEMEK
  6
CONTINUOUS
 10
179.4610776398481
 20
425.6646323074074
 30
0.0
 40
2.381250000000023
  1
6
 41
0.75
  7
SLDTEXTSTYLE0
  0
TEXT
  5
133E
  8
FA_SZERKEZETI_ELEMEK
  6
CONTINUOUS
 10
243.549497102395
 20
425.6509437815494
 30
0.0
 40
2.381250000000023
  1
5
 41
0.75
  7
SLDTEXTSTYLE0
  0
TEXT
  5
133F
  8
FA_SZERKEZETI_ELEMEK
  6
CONTINUOUS
 10
311.3317571339861
 20
425.7916457863038
 30
0.0
 40
2.381250000000023
  1
4
 41
0.75
  7
SLDTEXTSTYLE0
  0
TEXT
  5
1340
  8
FA_SZERKEZETI_ELEMEK
  6
CONTINUOUS
 10
376.7869096720166
 20
425.7012176386921
 30
0.0
 40
2.381250000000023
  1
3
 41
0.75
  7
SLDTEXTSTYLE0
  0
TEXT
  5
1341
  8
FA_SZERKEZETI_ELEMEK
  6
CONTINUOUS
 10
444.3181119827494
 20
425.7245700876719
 30
0.0
 40
2.381250000000023
  1
2
 41
0.75
  7
SLDTEXTSTYLE0
  0
TEXT
  5
1342
  8
FA_SZERKEZETI_ELEMEK
  6
CONTINUOUS
 10
510.7211461467189
 20
425.7687489808767
 30
0.0
 40
2.381250000000023
  1
1
 41
0.75
  7
SLDTEXTSTYLE0
  0
TEXT
  5
1343
  8
FA_SZERKEZETI_ELEMEK
  6
CONTINUOUS
 10
8.359305878927325
 20
320.2676486786163
 30
0.0
 40
2.381250000000023
  1
E
 41
0.75
  7
SLDTEXTSTYLE0
  0
TEXT
  5
1344
  8
FA_SZERKEZETI_ELEMEK
  6
CONTINUOUS
 10
8.235685620267066
 20
385.1618909657068
 30
0.0
 40
2.381250000000023
  1
F
 41
0.75
  7
SLDTEXTSTYLE0
  0
TEXT
  5
1345
  8
FA_SZERKEZETI_ELEMEK
  6
CONTINUOUS
 10
550.084875440518
 20
320.6099061745695
 30
0.0
 40
2.381250000000023
  1
E
 41
0.75
  7
SLDTEXTSTYLE0
  0
TEXT
  5
1346
  8
FA_SZERKEZETI_ELEMEK
  6
CONTINUOUS
 10
550.3044954095941
 20
389.9594072755417
 30
0.0
 40
2.381250000000023
  1
F
 41
0.75
  7
SLDTEXTSTYLE0
  0
TEXT
  5
1347
  8
FA_SZERKEZETI_ELEMEK
  6
CONTINUOUS
 10
524.5120499573746
 20
11.96216782546452
 30
0.0
 40
2.539999999999999
  1
SHEET 1 OF 1
 41
0.75
  7
SLDTEXTSTYLE0
  0
TEXT
  5
1348
  8
FA_SZERKEZETI_ELEMEK
  6
CONTINUOUS
 10
399.7391203688042
 20
57.45030291130869
 30
0.0
 40
1.777999999999999
  1
UNLESS OTHERWISE SPECIFIED:
 41
0.75
  7
SLDTEXTSTYLE0
  0
TEXT
  5
1349
  8
FA_SZERKEZETI_ELEMEK
  6
CONTINUOUS
 10
478.8297973144815
 20
11.95390862703094
 30
0.0
 40
2.540000000000001
  1
SCALE: 1:1
 41
0.75
  7
SLDTEXTSTYLE0
  0
TEXT
  5
134A
  8
FA_SZERKEZETI_ELEMEK
  6
CONTINUOUS
 10
497.7211793928424
 20
11.86697830924583
 30
0.0
 40
2.540000000000001
  1
WEIGHT:
 41
0.75
  7
SLDTEXTSTYLE0
  0
TEXT
  5
134B
  8
FA_SZERKEZETI_ELEMEK
  6
CONTINUOUS
 10
536.4660583078281
 20
25.41254340732547
 30
0.0
 40
2.539999999999999
  1
REV
 41
0.75
  7
SLDTEXTSTYLE0
  0
TEXT
  5
134C
  8
FA_SZERKEZETI_ELEMEK
  6
CONTINUOUS
 10
487.4618126897223
 20
25.51176165841811
 30
0.0
 40
2.539999999999999
  1
DWG.  NO.
 41
0.75
  7
SLDTEXTSTYLE0
  0
TEXT
  5
134D
  8
FA_SZERKEZETI_ELEMEK
  6
CONTINUOUS
 10
478.8611484952044
 20
18.10363708194365
 30
0.0
 40
6.349999999999998
  1
C
 41
0.75
  7
SLDTEXTSTYLE0
  0
TEXT
  5
134E
  8
FA_SZERKEZETI_ELEMEK
  6
CONTINUOUS
 10
478.6607404369295
 20
25.54729166138494
 30
0.0
 40
2.539999999999999
  1
SIZE
 41
0.75
  7
SLDTEXTSTYLE0
  0
TEXT
  5
134F
  8
FA_SZERKEZETI_ELEMEK
  6
CONTINUOUS
 10
477.7745912195742
 20
47.58221747811381
 30
0.0
 40
2.539999999999999
  1
TITLE:
 41
0.75
  7
SLDTEXTSTYLE0
  0
TEXT
  5
1350
  8
FA_SZERKEZETI_ELEMEK
  6
CONTINUOUS
 10
455.4049909303461
 20
57.00124904917423
 30
0.0
 40
1.651000000000003
  1
NAME
 41
0.75
  7
SLDTEXTSTYLE0
  0
TEXT
  5
1351
  8
FA_SZERKEZETI_ELEMEK
  6
CONTINUOUS
 10
467.8960396201752
 20
56.95714917480059
 30
0.0
 40
1.650999999999996
  1
DATE
 41
0.75
  7
SLDTEXTSTYLE0
  0
TEXT
  5
1352
  8
FA_SZERKEZETI_ELEMEK
  6
CONTINUOUS
 10
434.8649560629871
 20
28.98695880101566
 30
0.0
 40
1.651000000000003
  1
COMMENTS:
 41
0.75
  7
SLDTEXTSTYLE0
  0
TEXT
  5
1353
  8
FA_SZERKEZETI_ELEMEK
  6
CONTINUOUS
 10
434.8427677201552
 20
33.20129767987227
 30
0.0
 40
1.651000000000003
  1
Q.A.
 41
0.75
  7
SLDTEXTSTYLE0
  0
TEXT
  5
1354
  8
FA_SZERKEZETI_ELEMEK
  6
CONTINUOUS
 10
434.8840250626926
 20
37.92373361017684
 30
0.0
 40
1.651000000000003
  1
MFG APPR.
 41
0.75
  7
SLDTEXTSTYLE0
  0
TEXT
  5
1355
  8
FA_SZERKEZETI_ELEMEK
  6
CONTINUOUS
 10
434.7583378238908
 20
42.67905394860119
 30
0.0
 40
1.650999999999996
  1
ENG APPR.
 41
0.75
  7
SLDTEXTSTYLE0
  0
TEXT
  5
1356
  8
FA_SZERKEZETI_ELEMEK
  6
CONTINUOUS
 10
434.8318266454957
 20
47.31505509735577
 30
0.0
 40
1.651000000000003
  1
CHECKED
 41
0.75
  7
SLDTEXTSTYLE0
  0
TEXT
  5
1357
  8
FA_SZERKEZETI_ELEMEK
  6
CONTINUOUS
 10
434.7777002728751
 20
52.20100454448549
 30
0.0
 40
1.650999999999996
  1
DRAWN
 41
0.75
  7
SLDTEXTSTYLE0
  0
TEXT
  5
1358
  8
FA_SZERKEZETI_ELEMEK
  6
CONTINUOUS
 10
399.130849097207
 20
20.14348958328748
 30
0.0
 40
1.524000000000001
  1
FINISH
 41
0.75
  7
SLDTEXTSTYLE0
  0
TEXT
  5
1359
  8
FA_SZERKEZETI_ELEMEK
  6
CONTINUOUS
 10
399.0613538557064
 20
26.95827208474533
 30
0.0
 40
1.524000000000001
  1
MATERIAL
 41
0.75
  7
SLDTEXTSTYLE0
  0
TEXT
  5
135A
  8
FA_SZERKEZETI_ELEMEK
  6
CONTINUOUS
 10
366.9307588288626
 20
12.09133308688379
 30
0.0
 40
1.5875
  1
APPLICATION
 41
0.75
  7
SLDTEXTSTYLE0
  0
TEXT
  5
135B
  8
FA_SZERKEZETI_ELEMEK
  6
CONTINUOUS
 10
380.835246316224
 20
17.93933327325226
 30
0.0
 40
1.587499999999999
  1
USED ON
 41
0.75
  7
SLDTEXTSTYLE0
  0
TEXT
  5
135C
  8
FA_SZERKEZETI_ELEMEK
  6
CONTINUOUS
 10
355.5226522301603
 20
17.91302016398008
 30
0.0
 40
1.587499999999999
  1
NEXT ASSY
 41
0.75
  7
SLDTEXTSTYLE0
  0
TEXT
  5
135D
  8
FA_SZERKEZETI_ELEMEK
  6
CONTINUOUS
 10
549.369213158969
 20
43.1140411831085
 30
0.0
 40
2.381250000000001
  1
A
 41
0.75
  7
SLDTEXTSTYLE0
  0
TEXT
  5
135E
  8
FA_SZERKEZETI_ELEMEK
  6
CONTINUOUS
 10
403.382929731002
 20
12.14275544823256
 30
0.0
 40
1.5875
  1
DO NOT SCALE DRAWING
 41
0.75
  7
SLDTEXTSTYLE0
  0
TEXT
  5
135F
  8
FA_SZERKEZETI_ELEMEK
  6
CONTINUOUS
 10
399.4984845672006
 20
51.8727388103689
 30
0.0
 40
1.650999999999996
  1
DIMENSIONS ARE IN INCHES
 41
0.75
  7
SLDTEXTSTYLE0
  0
TEXT
  5
1360
  8
FA_SZERKEZETI_ELEMEK
  6
CONTINUOUS
 10
399.4984845672006
 20
49.22173888061297
 30
0.0
 40
1.650999999999996
  1
TOLERANCES:
 41
0.75
  7
SLDTEXTSTYLE0
  0
TEXT
  5
1361
  8
FA_SZERKEZETI_ELEMEK
  6
CONTINUOUS
 10
399.4984845672006
 20
46.57073895085705
 30
0.0
 40
1.650999999999996
  1
FRACTIONAL
 41
0.75
  7
SLDTEXTSTYLE0
  0
TEXT
  5
1362
  8
FA_SZERKEZETI_ELEMEK
  6
CONTINUOUS
 10
412.6451448578591
 20
46.57073895085705
 30
0.0
 40
1.650999999999996
  1
±
 41
0.75
  7
SLDTEXTSTYLE0
  0
TEXT
  5
1363
  8
FA_SZERKEZETI_ELEMEK
  6
CONTINUOUS
 10
399.4984845672006
 20
43.91973902110112
 30
0.0
 40
1.650999999999996
  1
ANGULAR: MACH
 41
0.75
  7
SLDTEXTSTYLE0
  0
TEXT
  5
1364
  8
FA_SZERKEZETI_ELEMEK
  6
CONTINUOUS
 10
417.8721657995338
 20
43.91973902110112
 30
0.0
 40
1.650999999999996
  1
±
 41
0.75
  7
SLDTEXTSTYLE0
  0
TEXT
  5
1365
  8
FA_SZERKEZETI_ELEMEK
  6
CONTINUOUS
 10
419.4447430823202
 20
43.91973902110112
 30
0.0
 40
1.650999999999996
  1
     BEND
 41
0.75
  7
SLDTEXTSTYLE0
  0
TEXT
  5
1366
  8
FA_SZERKEZETI_ELEMEK
  6
CONTINUOUS
 10
428.6536532495375
 20
43.91973902110112
 30
0.0
 40
1.650999999999996
  1
±
 41
0.75
  7
SLDTEXTSTYLE0
  0
TEXT
  5
1367
  8
FA_SZERKEZETI_ELEMEK
  6
CONTINUOUS
 10
399.4984845672006
 20
41.2687390913452
 30
0.0
 40
1.650999999999996
  1
TWO PLACE DECIMAL
 41
0.75
  7
SLDTEXTSTYLE0
  0
TEXT
  5
1368
  8
FA_SZERKEZETI_ELEMEK
  6
CONTINUOUS
 10
424.376131505167
 20
41.2687390913452
 30
0.0
 40
1.650999999999996
  1
±
 41
0.75
  7
SLDTEXTSTYLE0
  0
TEXT
  5
1369
  8
FA_SZERKEZETI_ELEMEK
  6
CONTINUOUS
 10
399.4984845672006
 20
38.61773916158927
 30
0.0
 40
1.650999999999996
  1
THREE PLACE DECIMAL
 41
0.75
  7
SLDTEXTSTYLE0
  0
TEXT
  5
136A
  8
FA_SZERKEZETI_ELEMEK
  6
CONTINUOUS
 10
424.2331008468027
 20
38.61773916158927
 30
0.0
 40
1.650999999999996
  1
±
 41
0.75
  7
SLDTEXTSTYLE0
  0
TEXT
  5
136B
  8
FA_SZERKEZETI_ELEMEK
  6
CONTINUOUS
 10
399.1900962566232
 20
33.03335773376195
 30
0.0
 40
1.524000000000001
  1
INTERPRET GEOMETRIC
 41
0.75
  7
SLDTEXTSTYLE0
  0
TEXT
  5
136C
  8
FA_SZERKEZETI_ELEMEK
  6
CONTINUOUS
 10
399.1900962566232
 20
30.50935783972411
 30
0.0
 40
1.524000000000001
  1
TOLERANCING PER:
 41
0.75
  7
SLDTEXTSTYLE0
  0
LINE
  5
136D
  8
FA_SZERKEZETI_ELEMEK
 10
546.681148409894
 20
10.42925795052996
 30
0.0
 11
13.28114840989403
 21
10.42925795053002
 31
0.0
  0
LINE
  5
136E
  8
FA_SZERKEZETI_ELEMEK
 10
546.681148409894
 20
10.42925795052996
 30
0.0
 11
546.681148409894
 21
423.17925795053
 31
0.0
  0
LINE
  5
136F
  8
FA_SZERKEZETI_ELEMEK
 10
476.6096605218518
 20
50.99806683352691
 30
0.0
 11
546.681148409894
 21
50.99806683352691
 31
0.0
  0
LINE
  5
1370
  8
FA_SZERKEZETI_ELEMEK
 10
486.6564971097434
 20
28.71378005381382
 30
0.0
 11
486.6564971097434
 21
15.8365582704416
 31
0.0
  0
LINE
  5
1371
  8
FA_SZERKEZETI_ELEMEK
 10
497.5173279566238
 20
15.83655827044161
 30
0.0
 11
497.5173279566238
 21
10.42925795052996
 31
0.0
  0
LINE
  5
1372
  8
FA_SZERKEZETI_ELEMEK
 10
532.1539919045855
 20
28.71378005381383
 30
0.0
 11
532.1539919045855
 21
15.83655827044161
 31
0.0
  0
LINE
  5
1373
  8
FA_SZERKEZETI_ELEMEK
 10
146.6311484098939
 20
10.42925795053
 30
0.0
 11
146.631148409894
 21
8.275358123271973
 31
0.0
  0
LINE
  5
1374
  8
FA_SZERKEZETI_ELEMEK
 10
79.95614840989396
 20
10.42925795053001
 30
0.0
 11
79.95614840989398
 21
8.275358123272799
 31
0.0
  0
LINE
  5
1375
  8
FA_SZERKEZETI_ELEMEK
 10
13.28114840989399
 20
79.23785795053001
 30
0.0
 11
10.10614840989399
 21
79.23785795053001
 31
0.0
  0
LINE
  5
1376
  8
FA_SZERKEZETI_ELEMEK
 10
13.28114840989401
 20
285.58745795053
 30
0.0
 11
10.10614840989406
 21
285.58745795053
 31
0.0
  0
ATTDEF
  5
1377
  8
FA_SZERKEZETI_ELEMEK
 10
497.4118457715308
 20
35.59992199306127
 30
0.0
 40
6.0
  1
TITLE
  7
SLDTEXTSTYLE0
 72
     4
 11
510.4318457715308
 21
38.59992199306127
 31
0.0
  3
ENTER DRAWING TITLE
  2
TITLE
 70
     0
  0
ATTDEF
  5
1378
  8
FA_SZERKEZETI_ELEMEK
 10
531.0011179144401
 20
17.85835870731566
 30
0.0
 40
6.0
  1
REV
  7
SLDTEXTSTYLE0
 72
     4
 11
540.0011179144401
 21
20.85835870731566
 31
0.0
  3
ENTER REVISION
  2
REV
 70
     0
  0
ATTDEF
  5
1379
  8
FA_SZERKEZETI_ELEMEK
 10
491.1645912511204
 20
17.7707768807858
 30
0.0
 40
6.0
  1
DWG_NO
  7
SLDTEXTSTYLE0
 72
     4
 11
509.1645912511204
 21
21.28077688078579
 31
0.0
  3
ENTER DRAWING NUMBER
  2
DWG_NO
 70
     0
  0
ATTDEF
  5
137A
  8
FA_SZERKEZETI_ELEMEK
 10
452.3021271050647
 20
52.24220079115445
 30
0.0
 40
2.0
  1
DRAWN_BY
 41
0.75
  7
SLDTEXTSTYLE0
 72
     4
 11
458.3021271050647
 21
53.41220079115445
 31
0.0
  3
ENTER INITIALS
  2
DRAWN_BY
 70
     0
  0
ENDBLK
  5
1AC8
  8
FA_SZERKEZETI_ELEMEK
  0
BLOCK
  8
0
  2
A-54643
 70
   100
 10
0.0
 20
0.0
 30
0.0
  3
A-54643
  1
A-54643.DWG
  0
ENDBLK
  5
1ACB
  8
0
  0
BLOCK
  8
0
  2
B-44563
 70
   100
 10
0.0
 20
0.0
 30
0.0
  3
B-44563
  1
B-44563.DWG
  0
ENDBLK
  5
1AD8
  8
0
  0
BLOCK
  8
0
  2
B-64529
 70
   100
 10
0.0
 20
0.0
 30
0.0
  3
B-64529
  1
B-64529.DWG
  0
ENDBLK
  5
1ADB
  8
0
  0
BLOCK
  8
0
  2
B-64543
 70
   100
 10
0.0
 20
0.0
 30
0.0
  3
B-64543
  1
B-64543.DWG
  0
ENDBLK
  5
1ADE
  8
0
  0
BLOCK
  8
0
  2
A-55869
 70
   100
 10
0.0
 20
0.0
 30
0.0
  3
A-55869
  1
A-55869.DWG
  0
ENDBLK
  5
1AE1
  8
0
  0
BLOCK
  8
0
  2
A-53345
 70
    68
 10
0.0
 20
0.0
 30
0.0
  3
A-53345
  1
A-53345.DWG
  0
ENDBLK
  5
1AEF
  8
0
  0
BLOCK
  8
0
  2
B-89987
 70
   100
 10
0.0
 20
0.0
 30
0.0
  3
B-89987
  1
B-89987.DWG
  0
ENDBLK
  5
1AF2
  8
0
  0
BLOCK
  8
FA_SZERKEZETI_ELEMEK
  2
BOM-TABLE
 70
     0
 10
0.0
 20
0.0
 30
0.0
  3
BOM-TABLE
  1

  0
LINE
  5
1A15
  8
0
  6
BYBLOCK
 62
     0
 10
-141.5144504960629
 20
0.0
 30
0.0
 11
-141.5144504960629
 21
-107.0806234949155
 31
0.0
  0
LINE
  5
1A16
  8
0
  6
BYBLOCK
 62
     0
 10
-141.5144504960629
 20
-107.0806234949155
 30
0.0
 11
0.0
 21
-107.0806234949155
 31
0.0
  0
LINE
  5
1A17
  8
0
  6
BYBLOCK
 62
     0
 10
0.0
 20
-107.0806234949155
 30
0.0
 11
0.0
 21
0.0
 31
0.0
  0
LINE
  5
1A18
  8
0
  6
BYBLOCK
 62
     0
 10
0.0
 20
0.0
 30
0.0
 11
-141.5144504960629
 21
0.0
 31
0.0
  0
LINE
  5
1A19
  8
0
  6
BYBLOCK
 62
     0
 10
-123.8814270640383
 20
0.0
 30
0.0
 11
-123.8814270640383
 21
-12.7588467606667
 31
0.0
  0
LINE
  5
1A1A
  8
0
  6
BYBLOCK
 62
     0
 10
-104.7581754672567
 20
0.0
 30
0.0
 11
-104.7581754672567
 21
-12.7588467606667
 31
0.0
  0
LINE
  5
1A1B
  8
0
  6
BYBLOCK
 62
     0
 10
-72.64850490156027
 20
0.0
 30
0.0
 11
-72.64850490156027
 21
-12.7588467606667
 31
0.0
  0
LINE
  5
1A1C
  8
0
  6
BYBLOCK
 62
     0
 10
-123.8814270640383
 20
-12.7588467606667
 30
0.0
 11
-123.8814270640383
 21
-107.0806234949153
 31
0.0
  0
LINE
  5
1A1D
  8
0
  6
BYBLOCK
 62
     0
 10
-104.7581754672567
 20
-12.7588467606667
 30
0.0
 11
-104.7581754672567
 21
-107.0806234949153
 31
0.0
  0
LINE
  5
1A1E
  8
0
  6
BYBLOCK
 62
     0
 10
-72.64850490156027
 20
-12.7588467606667
 30
0.0
 11
-72.64850490156027
 21
-107.0806234949153
 31
0.0
  0
LINE
  5
1A1F
  8
0
  6
BYBLOCK
 62
     0
 10
-141.5144504960629
 20
-21.3335537365075
 30
0.0
 11
0.0
 21
-21.3335537365075
 31
0.0
  0
LINE
  5
1A20
  8
0
  6
BYBLOCK
 62
     0
 10
-141.5144504960629
 20
-29.90826071234824
 30
0.0
 11
0.0
 21
-29.90826071234824
 31
0.0
  0
LINE
  5
1A21
  8
0
  6
BYBLOCK
 62
     0
 10
-141.5144504960629
 20
-38.48296768818904
 30
0.0
 11
0.0
 21
-38.48296768818904
 31
0.0
  0
LINE
  5
1A22
  8
0
  6
BYBLOCK
 62
     0
 10
-141.5144504960629
 20
-47.05767466402983
 30
0.0
 11
0.0
 21
-47.05767466402983
 31
0.0
  0
LINE
  5
1A23
  8
0
  6
BYBLOCK
 62
     0
 10
-141.5144504960629
 20
-55.63238163987063
 30
0.0
 11
0.0
 21
-55.63238163987063
 31
0.0
  0
LINE
  5
1A24
  8
0
  6
BYBLOCK
 62
     0
 10
-141.5144504960629
 20
-64.20708861571137
 30
0.0
 11
0.0
 21
-64.20708861571137
 31
0.0
  0
LINE
  5
1A25
  8
0
  6
BYBLOCK
 62
     0
 10
-141.5144504960629
 20
-72.78179559155217
 30
0.0
 11
0.0
 21
-72.78179559155217
 31
0.0
  0
LINE
  5
1A26
  8
0
  6
BYBLOCK
 62
     0
 10
-141.5144504960629
 20
-81.35650256739297
 30
0.0
 11
0.0
 21
-81.35650256739297
 31
0.0
  0
LINE
  5
1A27
  8
0
  6
BYBLOCK
 62
     0
 10
-141.5144504960629
 20
-89.93120954323376
 30
0.0
 11
0.0
 21
-89.93120954323376
 31
0.0
  0
LINE
  5
1A28
  8
0
  6
BYBLOCK
 62
     0
 10
-141.5144504960629
 20
-98.50591651907456
 30
0.0
 11
0.0
 21
-98.50591651907456
 31
0.0
  0
LINE
  5
1A29
  8
0
  6
BYBLOCK
 62
     0
 10
-141.5144504960629
 20
-12.7588467606667
 30
0.0
 11
0.0
 21
-12.7588467606667
 31
0.0
  0
TEXT
  5
1A2A
  8
0
  6
CONTINUOUS
 62
     0
 10
-138.4413417677692
 20
-5.812458823320242
 30
-0.0000000000010027
 40
3.5
  1
ITEM
 41
0.605
  7
SLDTEXTSTYLE1
  0
TEXT
  5
1A2B
  8
0
  6
CONTINUOUS
 62
     0
 10
-136.9708555999509
 20
-10.33329231559929
 30
-0.0000000000010027
 40
3.5
  1
NO.
 41
0.605
  7
SLDTEXTSTYLE1
  0
TEXT
  5
1A2C
  8
0
  6
CONTINUOUS
 62
     0
 10
-118.9037076479698
 20
-7.799919988457009
 30
-0.0000000000010027
 40
3.175
  1
QTY.
 41
0.75
  7
SLDTEXTSTYLE0
  0
TEXT
  5
1A2D
  8
0
  6
CONTINUOUS
 62
     0
 10
-99.25195042462951
 20
-8.072875569459768
 30
-0.0000000000010027
 40
3.5
  1
NUMBER
 41
0.605
  7
SLDTEXTSTYLE1
  0
TEXT
  5
1A2E
  8
0
  6
CONTINUOUS
 62
     0
 10
-52.75237847299979
 20
-8.072875569459768
 30
-0.0000000000010027
 40
3.5
  1
DESCRIPTION
 41
0.605
  7
SLDTEXTSTYLE1
  0
TEXT
  5
1A2F
  8
0
  6
CONTINUOUS
 62
     0
 10
-134.0347443024925
 20
-18.73965243771352
 30
-0.0000000000010027
 40
3.5
  1
1
 41
0.605
  7
SLDTEXTSTYLE1
  0
TEXT
  5
1A30
  8
0
  6
CONTINUOUS
 62
     0
 10
-115.4927873800451
 20
-18.57031172425683
 30
-0.0000000000010027
 40
3.175
  1
1
 41
0.75
  7
SLDTEXTSTYLE0
  0
TEXT
  5
1A31
  8
0
  6
CONTINUOUS
 62
     0
 10
-96.9842432853759
 20
-18.73965243771352
 30
-0.0000000000010027
 40
3.5
  1
B-78643
 41
0.605
  7
SLDTEXTSTYLE1
  0
TEXT
  5
1A32
  8
0
  6
CONTINUOUS
 62
     0
 10
-70.64850490156027
 20
-18.73965243771352
 30
-0.0000000000010027
 40
3.5
  1
POST
 41
0.605
  7
SLDTEXTSTYLE1
  0
TEXT
  5
1A33
  8
0
  6
CONTINUOUS
 62
     0
 10
-134.0347443024925
 20
-27.31435941355431
 30
-0.0000000000010027
 40
3.5
  1
2
 41
0.605
  7
SLDTEXTSTYLE1
  0
TEXT
  5
1A34
  8
0
  6
CONTINUOUS
 62
     0
 10
-115.4927873800451
 20
-27.14501870009763
 30
-0.0000000000010027
 40
3.175
  1
1
 41
0.75
  7
SLDTEXTSTYLE0
  0
TEXT
  5
1A35
  8
0
  6
CONTINUOUS
 62
     0
 10
-96.9842432853759
 20
-27.31435941355431
 30
-0.0000000000010027
 40
3.5
  1
A-55869
 41
0.605
  7
SLDTEXTSTYLE1
  0
TEXT
  5
1A36
  8
0
  6
CONTINUOUS
 62
     0
 10
-70.64850490156027
 20
-27.31435941355431
 30
-0.0000000000010027
 40
3.5
  1
LEVER
 41
0.605
  7
SLDTEXTSTYLE1
  0
TEXT
  5
1A37
  8
0
  6
CONTINUOUS
 62
     0
 10
-134.0347443024925
 20
-35.88906638939511
 30
-0.0000000000010027
 40
3.5
  1
3
 41
0.605
  7
SLDTEXTSTYLE1
  0
TEXT
  5
1A38
  8
0
  6
CONTINUOUS
 62
     0
 10
-115.4927873800451
 20
-35.71972567593842
 30
-0.0000000000010027
 40
3.175
  1
2
 41
0.75
  7
SLDTEXTSTYLE0
  0
TEXT
  5
1A39
  8
0
  6
CONTINUOUS
 62
     0
 10
-96.9842432853759
 20
-35.88906638939511
 30
-0.0000000000010027
 40
3.5
  1
A-53345
 41
0.605
  7
SLDTEXTSTYLE1
  0
TEXT
  5
1A3A
  8
0
  6
CONTINUOUS
 62
     0
 10
-70.64850490156027
 20
-35.88906638939511
 30
-0.0000000000010027
 40
3.5
  1
LINK
 41
0.605
  7
SLDTEXTSTYLE1
  0
TEXT
  5
1A3B
  8
0
  6
CONTINUOUS
 62
     0
 10
-134.0347443024925
 20
-44.46377336523591
 30
-0.0000000000010027
 40
3.5
  1
4
 41
0.605
  7
SLDTEXTSTYLE1
  0
TEXT
  5
1A3C
  8
0
  6
CONTINUOUS
 62
     0
 10
-115.4927873800451
 20
-44.29443265177922
 30
-0.0000000000010027
 40
3.175
  1
1
 41
0.75
  7
SLDTEXTSTYLE0
  0
TEXT
  5
1A3D
  8
0
  6
CONTINUOUS
 62
     0
 10
-96.9842432853759
 20
-44.46377336523591
 30
-0.0000000000010027
 40
3.5
  1
B-44563
 41
0.605
  7
SLDTEXTSTYLE1
  0
TEXT
  5
1A3E
  8
0
  6
CONTINUOUS
 62
     0
 10
-70.64850490156027
 20
-44.46377336523591
 30
-0.0000000000010027
 40
3.5
  1
ARM-LH
 41
0.605
  7
SLDTEXTSTYLE1
  0
TEXT
  5
1A3F
  8
0
  6
CONTINUOUS
 62
     0
 10
-134.0347443024925
 20
-53.03848034107665
 30
-0.0000000000010027
 40
3.5
  1
5
 41
0.605
  7
SLDTEXTSTYLE1
  0
TEXT
  5
1A40
  8
0
  6
CONTINUOUS
 62
     0
 10
-115.4927873800451
 20
-52.86913962761996
 30
-0.0000000000010027
 40
3.175
  1
1
 41
0.75
  7
SLDTEXTSTYLE0
  0
TEXT
  5
1A41
  8
0
  6
CONTINUOUS
 62
     0
 10
-96.9842432853759
 20
-53.03848034107665
 30
-0.0000000000010027
 40
3.5
  1
B-64529
 41
0.605
  7
SLDTEXTSTYLE1
  0
TEXT
  5
1A42
  8
0
  6
CONTINUOUS
 62
     0
 10
-70.64850490156027
 20
-53.03848034107665
 30
-0.0000000000010027
 40
3.5
  1
BLOCK
 41
0.605
  7
SLDTEXTSTYLE1
  0
TEXT
  5
1A43
  8
0
  6
CONTINUOUS
 62
     0
 10
-134.0347443024925
 20
-61.61318731691745
 30
-0.0000000000010027
 40
3.5
  1
6
 41
0.605
  7
SLDTEXTSTYLE1
  0
TEXT
  5
1A44
  8
0
  6
CONTINUOUS
 62
     0
 10
-115.4927873800451
 20
-61.44384660346076
 30
-0.0000000000010027
 40
3.175
  1
1
 41
0.75
  7
SLDTEXTSTYLE0
  0
TEXT
  5
1A45
  8
0
  6
CONTINUOUS
 62
     0
 10
-96.9842432853759
 20
-61.61318731691745
 30
-0.0000000000010027
 40
3.5
  1
A-44563
 41
0.605
  7
SLDTEXTSTYLE1
  0
TEXT
  5
1A46
  8
0
  6
CONTINUOUS
 62
     0
 10
-70.64850490156027
 20
-61.61318731691745
 30
-0.0000000000010027
 40
3.5
  1
ARM-RH
 41
0.605
  7
SLDTEXTSTYLE1
  0
TEXT
  5
1A47
  8
0
  6
CONTINUOUS
 62
     0
 10
-134.0347443024925
 20
-70.18789429275824
 30
-0.0000000000010027
 40
3.5
  1
7
 41
0.605
  7
SLDTEXTSTYLE1
  0
TEXT
  5
1A48
  8
0
  6
CONTINUOUS
 62
     0
 10
-115.4927873800451
 20
-70.01855357930155
 30
-0.0000000000010027
 40
3.175
  1
1
 41
0.75
  7
SLDTEXTSTYLE0
  0
TEXT
  5
1A49
  8
0
  6
CONTINUOUS
 62
     0
 10
-96.9842432853759
 20
-70.18789429275824
 30
-0.0000000000010027
 40
3.5
  1
B-89987
 41
0.605
  7
SLDTEXTSTYLE1
  0
TEXT
  5
1A4A
  8
0
  6
CONTINUOUS
 62
     0
 10
-70.64850490156027
 20
-70.18789429275824
 30
-0.0000000000010027
 40
3.5
  1
ROD
 41
0.605
  7
SLDTEXTSTYLE1
  0
TEXT
  5
1A4B
  8
0
  6
CONTINUOUS
 62
     0
 10
-134.0347443024925
 20
-78.76260126859898
 30
-0.0000000000010027
 40
3.5
  1
8
 41
0.605
  7
SLDTEXTSTYLE1
  0
TEXT
  5
1A4C
  8
0
  6
CONTINUOUS
 62
     0
 10
-115.4927873800451
 20
-78.59326055514235
 30
-0.0000000000010027
 40
3.175
  1
1
 41
0.75
  7
SLDTEXTSTYLE0
  0
TEXT
  5
1A4D
  8
0
  6
CONTINUOUS
 62
     0
 10
-96.9842432853759
 20
-78.76260126859898
 30
-0.0000000000010027
 40
3.5
  1
A-54643
 41
0.605
  7
SLDTEXTSTYLE1
  0
TEXT
  5
1A4E
  8
0
  6
CONTINUOUS
 62
     0
 10
-70.64850490156027
 20
-78.76260126859898
 30
-0.0000000000010027
 40
3.5
  1
FOOT-STEEL
 41
0.605
  7
SLDTEXTSTYLE1
  0
TEXT
  5
1A4F
  8
0
  6
CONTINUOUS
 62
     0
 10
-134.0347443024925
 20
-87.33730824443978
 30
-0.0000000000010027
 40
3.5
  1
9
 41
0.605
  7
SLDTEXTSTYLE1
  0
TEXT
  5
1A50
  8
0
  6
CONTINUOUS
 62
     0
 10
-115.4927873800451
 20
-87.16796753098309
 30
-0.0000000000010027
 40
3.175
  1
1
 41
0.75
  7
SLDTEXTSTYLE0
  0
TEXT
  5
1A51
  8
0
  6
CONTINUOUS
 62
     0
 10
-96.9842432853759
 20
-87.33730824443978
 30
-0.0000000000010027
 40
3.5
  1
B-64543
 41
0.605
  7
SLDTEXTSTYLE1
  0
TEXT
  5
1A52
  8
0
  6
CONTINUOUS
 62
     0
 10
-70.64850490156027
 20
-87.33730824443978
 30
-0.0000000000010027
 40
3.5
  1
FOOT-RUBBER
 41
0.605
  7
SLDTEXTSTYLE1
  0
TEXT
  5
1A53
  8
0
  6
CONTINUOUS
 62
     0
 10
-135.3715498249344
 20
-95.91201522028058
 30
-0.0000000000010027
 40
3.5
  1
10
 41
0.605
  7
SLDTEXTSTYLE1
  0
TEXT
  5
1A54
  8
0
  6
CONTINUOUS
 62
     0
 10
-115.4927873800451
 20
-95.74267450682389
 30
-0.0000000000010027
 40
3.175
  1
4
 41
0.75
  7
SLDTEXTSTYLE0
  0
TEXT
  5
1A55
  8
0
  6
CONTINUOUS
 62
     0
 10
-96.9842432853759
 20
-95.91201522028058
 30
-0.0000000000010027
 40
3.5
  1
HD-010
 41
0.605
  7
SLDTEXTSTYLE1
  0
TEXT
  5
1A56
  8
0
  6
CONTINUOUS
 62
     0
 10
-70.64850490156027
 20
-95.91201522028058
 30
-0.0000000000010027
 40
3.5
  1
RIVET - 16MM
 41
0.605
  7
SLDTEXTSTYLE1
  0
TEXT
  5
1A57
  8
0
  6
CONTINUOUS
 62
     0
 10
-135.3715498249344
 20
-104.4867221961214
 30
-0.0000000000010027
 40
3.5
  1
11
 41
0.605
  7
SLDTEXTSTYLE1
  0
TEXT
  5
1A58
  8
0
  6
CONTINUOUS
 62
     0
 10
-115.4927873800451
 20
-104.3173814826647
 30
-0.0000000000010027
 40
3.175
  1
2
 41
0.75
  7
SLDTEXTSTYLE0
  0
TEXT
  5
1A59
  8
0
  6
CONTINUOUS
 62
     0
 10
-96.9842432853759
 20
-104.4867221961214
 30
-0.0000000000010027
 40
3.5
  1
HD-011
 41
0.605
  7
SLDTEXTSTYLE1
  0
TEXT
  5
1A5A
  8
0
  6
CONTINUOUS
 62
     0
 10
-70.64850490156027
 20
-104.4867221961214
 30
-0.0000000000010027
 40
3.5
  1
RIVET - 22MM
 41
0.605
  7
SLDTEXTSTYLE1
  0
ENDBLK
  5
1AF4
  8
FA_SZERKEZETI_ELEMEK
  0
BLOCK
  8
0
  2
B-76843
 70
    68
 10
0.0
 20
0.0
 30
0.0
  3
B-76843
  1
C:\_My Documents\2D TO 3D\B-76843.DWG
  0
ENDBLK
  5
1B02
  8
0
  0
BLOCK
  8
0
  2
*X12
 70
     1
 10
0.0
 20
0.0
 30
0.0
  3
*X12
  1

  0
LINE
  5
1DF5
  8
VENTILLÁTOR_ÉS_ALKATRÉSZEI
 10
13852.37541179165
 20
3107.498962932405
 30
0.0
 11
13855.7505102479
 21
3110.874061388663
 31
0.0
  0
LINE
  5
1DF6
  8
VENTILLÁTOR_ÉS_ALKATRÉSZEI
 10
13852.37211272055
 20
3103.005535800775
 30
0.0
 11
13859.31784186086
 21
3109.951264941088
 31
0.0
  0
LINE
  5
1DF7
  8
VENTILLÁTOR_ÉS_ALKATRÉSZEI
 10
13852.36881364945
 20
3098.512108669143
 30
0.0
 11
13859.31769037383
 21
3105.460985393521
 31
0.0
  0
LINE
  5
1DF8
  8
VENTILLÁTOR_ÉS_ALKATRÉSZEI
 10
13852.36551457836
 20
3094.018681537512
 30
0.0
 11
13859.3175388868
 21
3100.970705845953
 31
0.0
  0
LINE
  5
1DF9
  8
VENTILLÁTOR_ÉS_ALKATRÉSZEI
 10
13852.36221550726
 20
3089.525254405881
 30
0.0
 11
13859.31738739977
 21
3096.480426298386
 31
0.0
  0
LINE
  5
1DFA
  8
VENTILLÁTOR_ÉS_ALKATRÉSZEI
 10
13852.35891643616
 20
3085.03182727425
 30
0.0
 11
13859.31723591273
 21
3091.990146750819
 31
0.0
  0
LINE
  5
1DFB
  8
VENTILLÁTOR_ÉS_ALKATRÉSZEI
 10
13852.35561736507
 20
3080.538400142619
 30
0.0
 11
13859.3170844257
 21
3087.499867203252
 31
0.0
  0
LINE
  5
1DFC
  8
VENTILLÁTOR_ÉS_ALKATRÉSZEI
 10
13852.35231829397
 20
3076.044973010988
 30
0.0
 11
13859.31693293867
 21
3083.009587655685
 31
0.0
  0
LINE
  5
1DFD
  8
VENTILLÁTOR_ÉS_ALKATRÉSZEI
 10
13852.34901922287
 20
3071.551545879357
 30
0.0
 11
13859.31678145163
 21
3078.519308108117
 31
0.0
  0
LINE
  5
1DFE
  8
VENTILLÁTOR_ÉS_ALKATRÉSZEI
 10
13852.34572015178
 20
3067.058118747726
 30
0.0
 11
13859.3166299646
 21
3074.02902856055
 31
0.0
  0
LINE
  5
1DFF
  8
VENTILLÁTOR_ÉS_ALKATRÉSZEI
 10
13852.34242108068
 20
3062.564691616094
 30
0.0
 11
13859.31647847757
 21
3069.538749012983
 31
0.0
  0
LINE
  5
1E00
  8
VENTILLÁTOR_ÉS_ALKATRÉSZEI
 10
13852.33912200958
 20
3058.071264484463
 30
0.0
 11
13859.31632699054
 21
3065.048469465416
 31
0.0
  0
LINE
  5
1E01
  8
VENTILLÁTOR_ÉS_ALKATRÉSZEI
 10
13852.33582293849
 20
3053.577837352832
 30
0.0
 11
13859.3161755035
 21
3060.558189917848
 31
0.0
  0
LINE
  5
1E02
  8
VENTILLÁTOR_ÉS_ALKATRÉSZEI
 10
13852.33252386739
 20
3049.084410221201
 30
0.0
 11
13859.31602401647
 21
3056.067910370281
 31
0.0
  0
LINE
  5
1E03
  8
VENTILLÁTOR_ÉS_ALKATRÉSZEI
 10
13852.32922479629
 20
3044.59098308957
 30
0.0
 11
13859.31587252944
 21
3051.577630822714
 31
0.0
  0
LINE
  5
1E04
  8
VENTILLÁTOR_ÉS_ALKATRÉSZEI
 10
13852.3259257252
 20
3040.097555957939
 30
0.0
 11
13859.31572104241
 21
3047.087351275147
 31
0.0
  0
LINE
  5
1E05
  8
VENTILLÁTOR_ÉS_ALKATRÉSZEI
 10
13852.3226266541
 20
3035.604128826308
 30
0.0
 11
13859.31556955537
 21
3042.59707172758
 31
0.0
  0
LINE
  5
1E06
  8
VENTILLÁTOR_ÉS_ALKATRÉSZEI
 10
13852.319327583
 20
3031.110701694676
 30
0.0
 11
13859.31541806834
 21
3038.106792180012
 31
0.0
  0
LINE
  5
1E07
  8
VENTILLÁTOR_ÉS_ALKATRÉSZEI
 10
13852.31602851191
 20
3026.617274563045
 30
0.0
 11
13859.31526658131
 21
3033.616512632445
 31
0.0
  0
LINE
  5
1E08
  8
VENTILLÁTOR_ÉS_ALKATRÉSZEI
 10
13852.31272944081
 20
3022.123847431414
 30
0.0
 11
13859.31511509427
 21
3029.126233084878
 31
0.0
  0
LINE
  5
1E09
  8
VENTILLÁTOR_ÉS_ALKATRÉSZEI
 10
13852.30943036971
 20
3017.630420299783
 30
0.0
 11
13859.31496360724
 21
3024.63595353731
 31
0.0
  0
LINE
  5
1E0A
  8
VENTILLÁTOR_ÉS_ALKATRÉSZEI
 10
13852.30613129862
 20
3013.136993168152
 30
0.0
 11
13859.31481212021
 21
3020.145673989743
 31
0.0
  0
LINE
  5
1E0B
  8
VENTILLÁTOR_ÉS_ALKATRÉSZEI
 10
13852.30283222752
 20
3008.64356603652
 30
0.0
 11
13859.31466063318
 21
3015.655394442176
 31
0.0
  0
LINE
  5
1E0C
  8
VENTILLÁTOR_ÉS_ALKATRÉSZEI
 10
13852.29953315643
 20
3004.150138904889
 30
0.0
 11
13859.31450914614
 21
3011.165114894608
 31
0.0
  0
LINE
  5
1E0D
  8
VENTILLÁTOR_ÉS_ALKATRÉSZEI
 10
13852.29623408533
 20
2999.656711773258
 30
0.0
 11
13859.31435765911
 21
3006.674835347041
 31
0.0
  0
LINE
  5
1E0E
  8
VENTILLÁTOR_ÉS_ALKATRÉSZEI
 10
13852.29293501423
 20
2995.163284641627
 30
0.0
 11
13859.31420617208
 21
3002.184555799474
 31
0.0
  0
LINE
  5
1E0F
  8
VENTILLÁTOR_ÉS_ALKATRÉSZEI
 10
13852.28963594314
 20
2990.669857509996
 30
0.0
 11
13859.31405468505
 21
2997.694276251907
 31
0.0
  0
LINE
  5
1E10
  8
VENTILLÁTOR_ÉS_ALKATRÉSZEI
 10
13852.28633687204
 20
2986.176430378365
 30
0.0
 11
13859.31390319801
 21
2993.203996704339
 31
0.0
  0
LINE
  5
1E11
  8
VENTILLÁTOR_ÉS_ALKATRÉSZEI
 10
13852.28303780094
 20
2981.683003246734
 30
0.0
 11
13859.31375171098
 21
2988.713717156772
 31
0.0
  0
LINE
  5
1E12
  8
VENTILLÁTOR_ÉS_ALKATRÉSZEI
 10
13852.27973872985
 20
2977.189576115103
 30
0.0
 11
13859.31360022395
 21
2984.223437609205
 31
0.0
  0
LINE
  5
1E13
  8
VENTILLÁTOR_ÉS_ALKATRÉSZEI
 10
13852.27643965875
 20
2972.696148983472
 30
0.0
 11
13859.31344873692
 21
2979.733158061637
 31
0.0
  0
LINE
  5
1E14
  8
VENTILLÁTOR_ÉS_ALKATRÉSZEI
 10
13852.27314058765
 20
2968.202721851841
 30
0.0
 11
13859.31329724988
 21
2975.24287851407
 31
0.0
  0
LINE
  5
1E15
  8
VENTILLÁTOR_ÉS_ALKATRÉSZEI
 10
13852.26984151656
 20
2963.709294720209
 30
0.0
 11
13859.31314576285
 21
2970.752598966503
 31
0.0
  0
LINE
  5
1E16
  8
VENTILLÁTOR_ÉS_ALKATRÉSZEI
 10
13852.26654244546
 20
2959.215867588578
 30
0.0
 11
13859.31299427582
 21
2966.262319418935
 31
0.0
  0
LINE
  5
1E17
  8
VENTILLÁTOR_ÉS_ALKATRÉSZEI
 10
13852.26324337436
 20
2954.722440456947
 30
0.0
 11
13859.31284278878
 21
2961.772039871368
 31
0.0
  0
LINE
  5
1E18
  8
VENTILLÁTOR_ÉS_ALKATRÉSZEI
 10
13852.25994430327
 20
2950.229013325316
 30
0.0
 11
13859.31269130175
 21
2957.281760323801
 31
0.0
  0
LINE
  5
1E19
  8
VENTILLÁTOR_ÉS_ALKATRÉSZEI
 10
13852.25664523217
 20
2945.735586193685
 30
0.0
 11
13859.31253981472
 21
2952.791480776234
 31
0.0
  0
LINE
  5
1E1A
  8
VENTILLÁTOR_ÉS_ALKATRÉSZEI
 10
13852.25334616107
 20
2941.242159062053
 30
0.0
 11
13859.31238832769
 21
2948.301201228667
 31
0.0
  0
LINE
  5
1E1B
  8
VENTILLÁTOR_ÉS_ALKATRÉSZEI
 10
13852.25004708998
 20
2936.748731930422
 30
0.0
 11
13859.31223684065
 21
2943.810921681099
 31
0.0
  0
LINE
  5
1E1C
  8
VENTILLÁTOR_ÉS_ALKATRÉSZEI
 10
13852.24674801888
 20
2932.255304798791
 30
0.0
 11
13859.31208535362
 21
2939.320642133532
 31
0.0
  0
LINE
  5
1E1D
  8
VENTILLÁTOR_ÉS_ALKATRÉSZEI
 10
13852.24344894778
 20
2927.76187766716
 30
0.0
 11
13859.31193386659
 21
2934.830362585965
 31
0.0
  0
LINE
  5
1E1E
  8
VENTILLÁTOR_ÉS_ALKATRÉSZEI
 10
13852.24014987669
 20
2923.268450535529
 30
0.0
 11
13859.31178237956
 21
2930.340083038398
 31
0.0
  0
LINE
  5
1E1F
  8
VENTILLÁTOR_ÉS_ALKATRÉSZEI
 10
13852.23685080559
 20
2918.775023403898
 30
0.0
 11
13859.31163089252
 21
2925.84980349083
 31
0.0
  0
LINE
  5
1E20
  8
VENTILLÁTOR_ÉS_ALKATRÉSZEI
 10
13852.23355173449
 20
2914.281596272267
 30
0.0
 11
13859.31147940549
 21
2921.359523943263
 31
0.0
  0
LINE
  5
1E21
  8
VENTILLÁTOR_ÉS_ALKATRÉSZEI
 10
13852.2302526634
 20
2909.788169140636
 30
0.0
 11
13859.31132791846
 21
2916.869244395696
 31
0.0
  0
LINE
  5
1E22
  8
VENTILLÁTOR_ÉS_ALKATRÉSZEI
 10
13852.2269535923
 20
2905.294742009004
 30
0.0
 11
13859.31117643143
 21
2912.378964848128
 31
0.0
  0
LINE
  5
1E23
  8
VENTILLÁTOR_ÉS_ALKATRÉSZEI
 10
13852.22365452121
 20
2900.801314877373
 30
0.0
 11
13859.31102494439
 21
2907.888685300561
 31
0.0
  0
LINE
  5
1E24
  8
VENTILLÁTOR_ÉS_ALKATRÉSZEI
 10
13852.22035545011
 20
2896.307887745742
 30
0.0
 11
13859.31087345736
 21
2903.398405752994
 31
0.0
  0
LINE
  5
1E25
  8
VENTILLÁTOR_ÉS_ALKATRÉSZEI
 10
13852.21705637901
 20
2891.814460614111
 30
0.0
 11
13859.31072197033
 21
2898.908126205427
 31
0.0
  0
LINE
  5
1E26
  8
VENTILLÁTOR_ÉS_ALKATRÉSZEI
 10
13852.21375730791
 20
2887.32103348248
 30
0.0
 11
13859.31057048329
 21
2894.41784665786
 31
0.0
  0
LINE
  5
1E27
  8
VENTILLÁTOR_ÉS_ALKATRÉSZEI
 10
13852.21045823682
 20
2882.827606350849
 30
0.0
 11
13859.31041899626
 21
2889.927567110292
 31
0.0
  0
LINE
  5
1E28
  8
VENTILLÁTOR_ÉS_ALKATRÉSZEI
 10
13852.20715916572
 20
2878.334179219218
 30
0.0
 11
13859.31026750923
 21
2885.437287562725
 31
0.0
  0
LINE
  5
1E29
  8
VENTILLÁTOR_ÉS_ALKATRÉSZEI
 10
13852.20386009463
 20
2873.840752087586
 30
0.0
 11
13859.3101160222
 21
2880.947008015158
 31
0.0
  0
LINE
  5
1E2A
  8
VENTILLÁTOR_ÉS_ALKATRÉSZEI
 10
13852.20056102353
 20
2869.347324955955
 30
0.0
 11
13859.30996453516
 21
2876.45672846759
 31
0.0
  0
LINE
  5
1E2B
  8
VENTILLÁTOR_ÉS_ALKATRÉSZEI
 10
13852.19726195243
 20
2864.853897824324
 30
0.0
 11
13859.30981304813
 21
2871.966448920023
 31
0.0
  0
LINE
  5
1E2C
  8
VENTILLÁTOR_ÉS_ALKATRÉSZEI
 10
13852.19396288134
 20
2860.360470692693
 30
0.0
 11
13859.3096615611
 21
2867.476169372456
 31
0.0
  0
LINE
  5
1E2D
  8
VENTILLÁTOR_ÉS_ALKATRÉSZEI
 10
13852.19066381024
 20
2855.867043561062
 30
0.0
 11
13859.30951007407
 21
2862.985889824889
 31
0.0
  0
LINE
  5
1E2E
  8
VENTILLÁTOR_ÉS_ALKATRÉSZEI
 10
13852.18736473914
 20
2851.373616429431
 30
0.0
 11
13859.30935858703
 21
2858.495610277321
 31
0.0
  0
LINE
  5
1E2F
  8
VENTILLÁTOR_ÉS_ALKATRÉSZEI
 10
13852.18406566805
 20
2846.880189297799
 30
0.0
 11
13859.3092071
 21
2854.005330729754
 31
0.0
  0
LINE
  5
1E30
  8
VENTILLÁTOR_ÉS_ALKATRÉSZEI
 10
13852.18076659695
 20
2842.386762166168
 30
0.0
 11
13859.30905561297
 21
2849.515051182187
 31
0.0
  0
LINE
  5
1E31
  8
VENTILLÁTOR_ÉS_ALKATRÉSZEI
 10
13852.17746752585
 20
2837.893335034537
 30
0.0
 11
13859.30890412594
 21
2845.024771634619
 31
0.0
  0
LINE
  5
1E32
  8
VENTILLÁTOR_ÉS_ALKATRÉSZEI
 10
13852.17416845476
 20
2833.399907902906
 30
0.0
 11
13859.3087526389
 21
2840.534492087052
 31
0.0
  0
LINE
  5
1E33
  8
VENTILLÁTOR_ÉS_ALKATRÉSZEI
 10
13852.17086938366
 20
2828.906480771275
 30
0.0
 11
13859.30860115187
 21
2836.044212539485
 31
0.0
  0
LINE
  5
1E34
  8
VENTILLÁTOR_ÉS_ALKATRÉSZEI
 10
13852.16757031256
 20
2824.413053639644
 30
0.0
 11
13859.30844966484
 21
2831.553932991917
 31
0.0
  0
LINE
  5
1E35
  8
VENTILLÁTOR_ÉS_ALKATRÉSZEI
 10
13852.16427124147
 20
2819.919626508013
 30
0.0
 11
13859.3082981778
 21
2827.06365344435
 31
0.0
  0
LINE
  5
1E36
  8
VENTILLÁTOR_ÉS_ALKATRÉSZEI
 10
13852.16097217037
 20
2815.426199376382
 30
0.0
 11
13859.30814669077
 21
2822.573373896783
 31
0.0
  0
LINE
  5
1E37
  8
VENTILLÁTOR_ÉS_ALKATRÉSZEI
 10
13852.15767309927
 20
2810.932772244751
 30
0.0
 11
13859.30799520374
 21
2818.083094349216
 31
0.0
  0
LINE
  5
1E38
  8
VENTILLÁTOR_ÉS_ALKATRÉSZEI
 10
13852.15437402818
 20
2806.43934511312
 30
0.0
 11
13859.30784371671
 21
2813.592814801649
 31
0.0
  0
LINE
  5
1E39
  8
VENTILLÁTOR_ÉS_ALKATRÉSZEI
 10
13852.15107495708
 20
2801.945917981488
 30
0.0
 11
13859.30769222967
 21
2809.102535254081
 31
0.0
  0
LINE
  5
1E3A
  8
VENTILLÁTOR_ÉS_ALKATRÉSZEI
 10
13852.14777588598
 20
2797.452490849857
 30
0.0
 11
13859.30754074264
 21
2804.612255706514
 31
0.0
  0
LINE
  5
1E3B
  8
VENTILLÁTOR_ÉS_ALKATRÉSZEI
 10
13852.14447681489
 20
2792.959063718226
 30
0.0
 11
13859.30738925561
 21
2800.121976158947
 31
0.0
  0
LINE
  5
1E3C
  8
VENTILLÁTOR_ÉS_ALKATRÉSZEI
 10
13852.14117774379
 20
2788.465636586595
 30
0.0
 11
13859.30723776857
 21
2795.63169661138
 31
0.0
  0
LINE
  5
1E3D
  8
VENTILLÁTOR_ÉS_ALKATRÉSZEI
 10
13852.13787867269
 20
2783.972209454963
 30
0.0
 11
13859.30708628154
 21
2791.141417063812
 31
0.0
  0
LINE
  5
1E3E
  8
VENTILLÁTOR_ÉS_ALKATRÉSZEI
 10
13852.1345796016
 20
2779.478782323333
 30
0.0
 11
13859.30693479451
 21
2786.651137516245
 31
0.0
  0
LINE
  5
1E3F
  8
VENTILLÁTOR_ÉS_ALKATRÉSZEI
 10
13852.1312805305
 20
2774.985355191701
 30
0.0
 11
13859.30678330748
 21
2782.160857968678
 31
0.0
  0
LINE
  5
1E40
  8
VENTILLÁTOR_ÉS_ALKATRÉSZEI
 10
13852.12798145941
 20
2770.49192806007
 30
0.0
 11
13859.30663182045
 21
2777.67057842111
 31
0.0
  0
LINE
  5
1E41
  8
VENTILLÁTOR_ÉS_ALKATRÉSZEI
 10
13852.12468238831
 20
2765.998500928439
 30
0.0
 11
13859.30648033341
 21
2773.180298873543
 31
0.0
  0
LINE
  5
1E42
  8
VENTILLÁTOR_ÉS_ALKATRÉSZEI
 10
13852.12138331721
 20
2761.505073796808
 30
0.0
 11
13859.30632884638
 21
2768.690019325976
 31
0.0
  0
LINE
  5
1E43
  8
VENTILLÁTOR_ÉS_ALKATRÉSZEI
 10
13852.11808424611
 20
2757.011646665177
 30
0.0
 11
13859.30617735935
 21
2764.199739778409
 31
0.0
  0
LINE
  5
1E44
  8
VENTILLÁTOR_ÉS_ALKATRÉSZEI
 10
13852.11478517502
 20
2752.518219533546
 30
0.0
 11
13859.30602587231
 21
2759.709460230842
 31
0.0
  0
LINE
  5
1E45
  8
VENTILLÁTOR_ÉS_ALKATRÉSZEI
 10
13852.11148610392
 20
2748.024792401915
 30
0.0
 11
13859.30587438528
 21
2755.219180683274
 31
0.0
  0
LINE
  5
1E46
  8
VENTILLÁTOR_ÉS_ALKATRÉSZEI
 10
13852.10818703283
 20
2743.531365270283
 30
0.0
 11
13859.30572289825
 21
2750.728901135707
 31
0.0
  0
LINE
  5
1E47
  8
VENTILLÁTOR_ÉS_ALKATRÉSZEI
 10
13852.10488796173
 20
2739.037938138652
 30
0.0
 11
13859.30557141122
 21
2746.23862158814
 31
0.0
  0
LINE
  5
1E48
  8
VENTILLÁTOR_ÉS_ALKATRÉSZEI
 10
13852.10158889063
 20
2734.544511007021
 30
0.0
 11
13859.30541992418
 21
2741.748342040572
 31
0.0
  0
LINE
  5
1E49
  8
VENTILLÁTOR_ÉS_ALKATRÉSZEI
 10
13852.09828981954
 20
2730.05108387539
 30
0.0
 11
13859.30526843715
 21
2737.258062493005
 31
0.0
  0
LINE
  5
1E4A
  8
VENTILLÁTOR_ÉS_ALKATRÉSZEI
 10
13852.09499074844
 20
2725.557656743759
 30
0.0
 11
13859.30511695012
 21
2732.767782945438
 31
0.0
  0
LINE
  5
1E4B
  8
VENTILLÁTOR_ÉS_ALKATRÉSZEI
 10
13852.09169167734
 20
2721.064229612128
 30
0.0
 11
13859.30496546308
 21
2728.277503397871
 31
0.0
  0
LINE
  5
1E4C
  8
VENTILLÁTOR_ÉS_ALKATRÉSZEI
 10
13852.08839260625
 20
2716.570802480497
 30
0.0
 11
13859.30481397605
 21
2723.787223850303
 31
0.0
  0
LINE
  5
1E4D
  8
VENTILLÁTOR_ÉS_ALKATRÉSZEI
 10
13852.08509353515
 20
2712.077375348865
 30
0.0
 11
13859.30466248902
 21
2719.296944302736
 31
0.0
  0
LINE
  5
1E4E
  8
VENTILLÁTOR_ÉS_ALKATRÉSZEI
 10
13852.08179446405
 20
2707.583948217234
 30
0.0
 11
13859.30451100199
 21
2714.806664755169
 31
0.0
  0
LINE
  5
1E4F
  8
VENTILLÁTOR_ÉS_ALKATRÉSZEI
 10
13852.07849539296
 20
2703.090521085603
 30
0.0
 11
13859.30435951496
 21
2710.316385207601
 31
0.0
  0
LINE
  5
1E50
  8
VENTILLÁTOR_ÉS_ALKATRÉSZEI
 10
13852.07519632186
 20
2698.597093953972
 30
0.0
 11
13859.30420802792
 21
2705.826105660034
 31
0.0
  0
LINE
  5
1E51
  8
VENTILLÁTOR_ÉS_ALKATRÉSZEI
 10
13852.07189725076
 20
2694.103666822341
 30
0.0
 11
13859.30405654089
 21
2701.335826112467
 31
0.0
  0
LINE
  5
1E52
  8
VENTILLÁTOR_ÉS_ALKATRÉSZEI
 10
13852.06859817967
 20
2689.61023969071
 30
0.0
 11
13859.30390505386
 21
2696.845546564899
 31
0.0
  0
LINE
  5
1E53
  8
VENTILLÁTOR_ÉS_ALKATRÉSZEI
 10
13852.06529910857
 20
2685.116812559078
 30
0.0
 11
13859.30375356682
 21
2692.355267017332
 31
0.0
  0
LINE
  5
1E54
  8
VENTILLÁTOR_ÉS_ALKATRÉSZEI
 10
13852.06200003747
 20
2680.623385427447
 30
0.0
 11
13859.30360207979
 21
2687.864987469765
 31
0.0
  0
LINE
  5
1E55
  8
VENTILLÁTOR_ÉS_ALKATRÉSZEI
 10
13852.05870096638
 20
2676.129958295816
 30
0.0
 11
13859.30345059276
 21
2683.374707922198
 31
0.0
  0
LINE
  5
1E56
  8
VENTILLÁTOR_ÉS_ALKATRÉSZEI
 10
13852.05540189528
 20
2671.636531164185
 30
0.0
 11
13859.30329910573
 21
2678.884428374631
 31
0.0
  0
LINE
  5
1E57
  8
VENTILLÁTOR_ÉS_ALKATRÉSZEI
 10
13852.05210282418
 20
2667.143104032554
 30
0.0
 11
13859.30314761869
 21
2674.394148827063
 31
0.0
  0
LINE
  5
1E58
  8
VENTILLÁTOR_ÉS_ALKATRÉSZEI
 10
13852.04880375309
 20
2662.649676900923
 30
0.0
 11
13859.30299613166
 21
2669.903869279496
 31
0.0
  0
LINE
  5
1E59
  8
VENTILLÁTOR_ÉS_ALKATRÉSZEI
 10
13852.04550468199
 20
2658.156249769292
 30
0.0
 11
13859.30284464463
 21
2665.413589731929
 31
0.0
  0
LINE
  5
1E5A
  8
VENTILLÁTOR_ÉS_ALKATRÉSZEI
 10
13852.04220561089
 20
2653.662822637661
 30
0.0
 11
13859.3026931576
 21
2660.923310184362
 31
0.0
  0
LINE
  5
1E5B
  8
VENTILLÁTOR_ÉS_ALKATRÉSZEI
 10
13852.0389065398
 20
2649.16939550603
 30
0.0
 11
13859.30254167056
 21
2656.433030636794
 31
0.0
  0
LINE
  5
1E5C
  8
VENTILLÁTOR_ÉS_ALKATRÉSZEI
 10
13852.0356074687
 20
2644.675968374399
 30
0.0
 11
13859.30239018353
 21
2651.942751089227
 31
0.0
  0
LINE
  5
1E5D
  8
VENTILLÁTOR_ÉS_ALKATRÉSZEI
 10
13852.03230839761
 20
2640.182541242767
 30
0.0
 11
13859.3022386965
 21
2647.45247154166
 31
0.0
  0
LINE
  5
1E5E
  8
VENTILLÁTOR_ÉS_ALKATRÉSZEI
 10
13852.02900932651
 20
2635.689114111136
 30
0.0
 11
13859.30208720946
 21
2642.962191994092
 31
0.0
  0
LINE
  5
1E5F
  8
VENTILLÁTOR_ÉS_ALKATRÉSZEI
 10
13852.02571025541
 20
2631.195686979505
 30
0.0
 11
13859.30193572243
 21
2638.471912446525
 31
0.0
  0
LINE
  5
1E60
  8
VENTILLÁTOR_ÉS_ALKATRÉSZEI
 10
13852.02241118431
 20
2626.702259847874
 30
0.0
 11
13859.3017842354
 21
2633.981632898958
 31
0.0
  0
LINE
  5
1E61
  8
VENTILLÁTOR_ÉS_ALKATRÉSZEI
 10
13852.01911211322
 20
2622.208832716243
 30
0.0
 11
13859.30163274837
 21
2629.491353351391
 31
0.0
  0
LINE
  5
1E62
  8
VENTILLÁTOR_ÉS_ALKATRÉSZEI
 10
13852.01581304212
 20
2617.715405584612
 30
0.0
 11
13859.30148126133
 21
2625.001073803824
 31
0.0
  0
LINE
  5
1E63
  8
VENTILLÁTOR_ÉS_ALKATRÉSZEI
 10
13852.01251397103
 20
2613.221978452981
 30
0.0
 11
13859.3013297743
 21
2620.510794256256
 31
0.0
  0
LINE
  5
1E64
  8
VENTILLÁTOR_ÉS_ALKATRÉSZEI
 10
13852.00921489993
 20
2608.728551321349
 30
0.0
 11
13859.30117828727
 21
2616.020514708689
 31
0.0
  0
LINE
  5
1E65
  8
VENTILLÁTOR_ÉS_ALKATRÉSZEI
 10
13852.00591582883
 20
2604.235124189718
 30
0.0
 11
13859.30102680024
 21
2611.530235161122
 31
0.0
  0
LINE
  5
1E66
  8
VENTILLÁTOR_ÉS_ALKATRÉSZEI
 10
13852.00261675774
 20
2599.741697058087
 30
0.0
 11
13859.3008753132
 21
2607.039955613554
 31
0.0
  0
LINE
  5
1E67
  8
VENTILLÁTOR_ÉS_ALKATRÉSZEI
 10
13851.99931768664
 20
2595.248269926456
 30
0.0
 11
13859.30072382617
 21
2602.549676065987
 31
0.0
  0
LINE
  5
1E68
  8
VENTILLÁTOR_ÉS_ALKATRÉSZEI
 10
13851.99601861554
 20
2590.754842794825
 30
0.0
 11
13859.30057233914
 21
2598.05939651842
 31
0.0
  0
LINE
  5
1E69
  8
VENTILLÁTOR_ÉS_ALKATRÉSZEI
 10
13851.99271954445
 20
2586.261415663194
 30
0.0
 11
13859.30042085211
 21
2593.569116970853
 31
0.0
  0
LINE
  5
1E6A
  8
VENTILLÁTOR_ÉS_ALKATRÉSZEI
 10
13851.98942047335
 20
2581.767988531563
 30
0.0
 11
13859.30026936507
 21
2589.078837423286
 31
0.0
  0
LINE
  5
1E6B
  8
VENTILLÁTOR_ÉS_ALKATRÉSZEI
 10
13851.98612140225
 20
2577.274561399931
 30
0.0
 11
13859.30011787804
 21
2584.588557875718
 31
0.0
  0
LINE
  5
1E6C
  8
VENTILLÁTOR_ÉS_ALKATRÉSZEI
 10
13851.98282233116
 20
2572.7811342683
 30
0.0
 11
13859.29996639101
 21
2580.098278328151
 31
0.0
  0
LINE
  5
1E6D
  8
VENTILLÁTOR_ÉS_ALKATRÉSZEI
 10
13851.97952326006
 20
2568.287707136669
 30
0.0
 11
13859.29981490397
 21
2575.607998780584
 31
0.0
  0
LINE
  5
1E6E
  8
VENTILLÁTOR_ÉS_ALKATRÉSZEI
 10
13851.97622418896
 20
2563.794280005038
 30
0.0
 11
13859.29966341694
 21
2571.117719233016
 31
0.0
  0
LINE
  5
1E6F
  8
VENTILLÁTOR_ÉS_ALKATRÉSZEI
 10
13851.97292511787
 20
2559.300852873407
 30
0.0
 11
13859.29951192991
 21
2566.627439685449
 31
0.0
  0
LINE
  5
1E70
  8
VENTILLÁTOR_ÉS_ALKATRÉSZEI
 10
13851.96962604677
 20
2554.807425741776
 30
0.0
 11
13859.29936044288
 21
2562.137160137882
 31
0.0
  0
LINE
  5
1E71
  8
VENTILLÁTOR_ÉS_ALKATRÉSZEI
 10
13851.96632697567
 20
2550.313998610145
 30
0.0
 11
13859.29920895584
 21
2557.646880590315
 31
0.0
  0
LINE
  5
1E72
  8
VENTILLÁTOR_ÉS_ALKATRÉSZEI
 10
13851.96302790458
 20
2545.820571478514
 30
0.0
 11
13859.29905746881
 21
2553.156601042748
 31
0.0
  0
LINE
  5
1E73
  8
VENTILLÁTOR_ÉS_ALKATRÉSZEI
 10
13851.95972883348
 20
2541.327144346883
 30
0.0
 11
13859.29890598178
 21
2548.66632149518
 31
0.0
  0
LINE
  5
1E74
  8
VENTILLÁTOR_ÉS_ALKATRÉSZEI
 10
13851.95642976238
 20
2536.833717215251
 30
0.0
 11
13859.29875449475
 21
2544.176041947613
 31
0.0
  0
LINE
  5
1E75
  8
VENTILLÁTOR_ÉS_ALKATRÉSZEI
 10
13851.95313069129
 20
2532.34029008362
 30
0.0
 11
13859.29860300771
 21
2539.685762400046
 31
0.0
  0
LINE
  5
1E76
  8
VENTILLÁTOR_ÉS_ALKATRÉSZEI
 10
13851.94983162019
 20
2527.846862951989
 30
0.0
 11
13859.29845152068
 21
2535.195482852479
 31
0.0
  0
LINE
  5
1E77
  8
VENTILLÁTOR_ÉS_ALKATRÉSZEI
 10
13851.94653254909
 20
2523.353435820358
 30
0.0
 11
13859.29830003365
 21
2530.705203304911
 31
0.0
  0
LINE
  5
1E78
  8
VENTILLÁTOR_ÉS_ALKATRÉSZEI
 10
13851.943233478
 20
2518.860008688727
 30
0.0
 11
13859.29814854662
 21
2526.214923757344
 31
0.0
  0
LINE
  5
1E79
  8
VENTILLÁTOR_ÉS_ALKATRÉSZEI
 10
13851.9399344069
 20
2514.366581557096
 30
0.0
 11
13859.29799705958
 21
2521.724644209777
 31
0.0
  0
LINE
  5
1E7A
  8
VENTILLÁTOR_ÉS_ALKATRÉSZEI
 10
13851.93663533581
 20
2509.873154425465
 30
0.0
 11
13859.29784557255
 21
2517.234364662209
 31
0.0
  0
LINE
  5
1E7B
  8
VENTILLÁTOR_ÉS_ALKATRÉSZEI
 10
13851.93333626471
 20
2505.379727293834
 30
0.0
 11
13859.29769408552
 21
2512.744085114642
 31
0.0
  0
LINE
  5
1E7C
  8
VENTILLÁTOR_ÉS_ALKATRÉSZEI
 10
13851.93003719361
 20
2500.886300162203
 30
0.0
 11
13859.29754259848
 21
2508.253805567075
 31
0.0
  0
LINE
  5
1E7D
  8
VENTILLÁTOR_ÉS_ALKATRÉSZEI
 10
13851.92673812251
 20
2496.392873030572
 30
0.0
 11
13859.29739111145
 21
2503.763526019508
 31
0.0
  0
LINE
  5
1E7E
  8
VENTILLÁTOR_ÉS_ALKATRÉSZEI
 10
13851.92343905142
 20
2491.89944589894
 30
0.0
 11
13859.29723962442
 21
2499.273246471941
 31
0.0
  0
LINE
  5
1E7F
  8
VENTILLÁTOR_ÉS_ALKATRÉSZEI
 10
13851.92013998032
 20
2487.406018767309
 30
0.0
 11
13859.29708813739
 21
2494.782966924373
 31
0.0
  0
LINE
  5
1E80
  8
VENTILLÁTOR_ÉS_ALKATRÉSZEI
 10
13851.91684090923
 20
2482.912591635678
 30
0.0
 11
13859.29693665035
 21
2490.292687376806
 31
0.0
  0
LINE
  5
1E81
  8
VENTILLÁTOR_ÉS_ALKATRÉSZEI
 10
13851.91354183813
 20
2478.419164504047
 30
0.0
 11
13859.29678516332
 21
2485.802407829239
 31
0.0
  0
LINE
  5
1E82
  8
VENTILLÁTOR_ÉS_ALKATRÉSZEI
 10
13851.91024276703
 20
2473.925737372416
 30
0.0
 11
13859.29663367629
 21
2481.312128281671
 31
0.0
  0
LINE
  5
1E83
  8
VENTILLÁTOR_ÉS_ALKATRÉSZEI
 10
13851.90694369594
 20
2469.432310240785
 30
0.0
 11
13859.29648218926
 21
2476.821848734104
 31
0.0
  0
LINE
  5
1E84
  8
VENTILLÁTOR_ÉS_ALKATRÉSZEI
 10
13851.90364462484
 20
2464.938883109153
 30
0.0
 11
13859.29633070222
 21
2472.331569186537
 31
0.0
  0
LINE
  5
1E85
  8
VENTILLÁTOR_ÉS_ALKATRÉSZEI
 10
13851.90034555374
 20
2460.445455977522
 30
0.0
 11
13859.29617921519
 21
2467.84128963897
 31
0.0
  0
LINE
  5
1E86
  8
VENTILLÁTOR_ÉS_ALKATRÉSZEI
 10
13851.89704648265
 20
2455.952028845891
 30
0.0
 11
13859.29602772816
 21
2463.351010091403
 31
0.0
  0
LINE
  5
1E87
  8
VENTILLÁTOR_ÉS_ALKATRÉSZEI
 10
13851.89374741155
 20
2451.45860171426
 30
0.0
 11
13859.29587624113
 21
2458.860730543835
 31
0.0
  0
LINE
  5
1E88
  8
VENTILLÁTOR_ÉS_ALKATRÉSZEI
 10
13851.89044834045
 20
2446.965174582629
 30
0.0
 11
13859.29572475409
 21
2454.370450996268
 31
0.0
  0
LINE
  5
1E89
  8
VENTILLÁTOR_ÉS_ALKATRÉSZEI
 10
13851.88714926936
 20
2442.471747450998
 30
0.0
 11
13859.29557326706
 21
2449.880171448701
 31
0.0
  0
LINE
  5
1E8A
  8
VENTILLÁTOR_ÉS_ALKATRÉSZEI
 10
13851.88385019826
 20
2437.978320319367
 30
0.0
 11
13859.29542178003
 21
2445.389891901134
 31
0.0
  0
LINE
  5
1E8B
  8
VENTILLÁTOR_ÉS_ALKATRÉSZEI
 10
13851.88055112716
 20
2433.484893187735
 30
0.0
 11
13859.29527029299
 21
2440.899612353566
 31
0.0
  0
LINE
  5
1E8C
  8
VENTILLÁTOR_ÉS_ALKATRÉSZEI
 10
13851.87725205607
 20
2428.991466056104
 30
0.0
 11
13859.29511880596
 21
2436.409332805999
 31
0.0
  0
LINE
  5
1E8D
  8
VENTILLÁTOR_ÉS_ALKATRÉSZEI
 10
13851.87395298497
 20
2424.498038924473
 30
0.0
 11
13859.29496731893
 21
2431.919053258432
 31
0.0
  0
LINE
  5
1E8E
  8
VENTILLÁTOR_ÉS_ALKATRÉSZEI
 10
13851.87065391387
 20
2420.004611792842
 30
0.0
 11
13859.2948158319
 21
2427.428773710864
 31
0.0
  0
LINE
  5
1E8F
  8
VENTILLÁTOR_ÉS_ALKATRÉSZEI
 10
13851.86735484278
 20
2415.511184661211
 30
0.0
 11
13859.29466434486
 21
2422.938494163297
 31
0.0
  0
LINE
  5
1E90
  8
VENTILLÁTOR_ÉS_ALKATRÉSZEI
 10
13851.86405577168
 20
2411.01775752958
 30
0.0
 11
13859.29451285783
 21
2418.44821461573
 31
0.0
  0
LINE
  5
1E91
  8
VENTILLÁTOR_ÉS_ALKATRÉSZEI
 10
13851.86075670058
 20
2406.524330397949
 30
0.0
 11
13859.2943613708
 21
2413.957935068163
 31
0.0
  0
LINE
  5
1E92
  8
VENTILLÁTOR_ÉS_ALKATRÉSZEI
 10
13851.85745762949
 20
2402.030903266318
 30
0.0
 11
13859.29420988376
 21
2409.467655520596
 31
0.0
  0
LINE
  5
1E93
  8
VENTILLÁTOR_ÉS_ALKATRÉSZEI
 10
13851.85415855839
 20
2397.537476134687
 30
0.0
 11
13859.29405839673
 21
2404.977375973028
 31
0.0
  0
LINE
  5
1E94
  8
VENTILLÁTOR_ÉS_ALKATRÉSZEI
 10
13851.85085948729
 20
2393.044049003056
 30
0.0
 11
13859.2939069097
 21
2400.487096425461
 31
0.0
  0
LINE
  5
1E95
  8
VENTILLÁTOR_ÉS_ALKATRÉSZEI
 10
13851.8475604162
 20
2388.550621871424
 30
0.0
 11
13859.29375542267
 21
2395.996816877894
 31
0.0
  0
LINE
  5
1E96
  8
VENTILLÁTOR_ÉS_ALKATRÉSZEI
 10
13851.8442613451
 20
2384.057194739793
 30
0.0
 11
13859.29360393564
 21
2391.506537330326
 31
0.0
  0
LINE
  5
1E97
  8
VENTILLÁTOR_ÉS_ALKATRÉSZEI
 10
13851.84096227401
 20
2379.563767608162
 30
0.0
 11
13859.2934524486
 21
2387.016257782759
 31
0.0
  0
LINE
  5
1E98
  8
VENTILLÁTOR_ÉS_ALKATRÉSZEI
 10
13851.83766320291
 20
2375.070340476531
 30
0.0
 11
13859.29330096157
 21
2382.525978235192
 31
0.0
  0
LINE
  5
1E99
  8
VENTILLÁTOR_ÉS_ALKATRÉSZEI
 10
13851.83436413181
 20
2370.5769133449
 30
0.0
 11
13859.29314947454
 21
2378.035698687625
 31
0.0
  0
LINE
  5
1E9A
  8
VENTILLÁTOR_ÉS_ALKATRÉSZEI
 10
13851.83106506072
 20
2366.083486213269
 30
0.0
 11
13859.2929979875
 21
2373.545419140058
 31
0.0
  0
LINE
  5
1E9B
  8
VENTILLÁTOR_ÉS_ALKATRÉSZEI
 10
13851.82776598962
 20
2361.590059081638
 30
0.0
 11
13859.29284650047
 21
2369.05513959249
 31
0.0
  0
LINE
  5
1E9C
  8
VENTILLÁTOR_ÉS_ALKATRÉSZEI
 10
13851.82446691852
 20
2357.096631950007
 30
0.0
 11
13859.29269501344
 21
2364.564860044923
 31
0.0
  0
LINE
  5
1E9D
  8
VENTILLÁTOR_ÉS_ALKATRÉSZEI
 10
13851.82116784743
 20
2352.603204818376
 30
0.0
 11
13859.29254352641
 21
2360.074580497356
 31
0.0
  0
LINE
  5
1E9E
  8
VENTILLÁTOR_ÉS_ALKATRÉSZEI
 10
13851.81786877633
 20
2348.109777686744
 30
0.0
 11
13859.29239203937
 21
2355.584300949788
 31
0.0
  0
LINE
  5
1E9F
  8
VENTILLÁTOR_ÉS_ALKATRÉSZEI
 10
13851.81456970523
 20
2343.616350555113
 30
0.0
 11
13859.29224055234
 21
2351.094021402221
 31
0.0
  0
LINE
  5
1EA0
  8
VENTILLÁTOR_ÉS_ALKATRÉSZEI
 10
13851.81127063414
 20
2339.122923423482
 30
0.0
 11
13859.29208906531
 21
2346.603741854654
 31
0.0
  0
LINE
  5
1EA1
  8
VENTILLÁTOR_ÉS_ALKATRÉSZEI
 10
13851.80797156304
 20
2334.629496291851
 30
0.0
 11
13859.29193757827
 21
2342.113462307087
 31
0.0
  0
LINE
  5
1EA2
  8
VENTILLÁTOR_ÉS_ALKATRÉSZEI
 10
13851.80467249194
 20
2330.13606916022
 30
0.0
 11
13859.29178609124
 21
2337.62318275952
 31
0.0
  0
LINE
  5
1EA3
  8
VENTILLÁTOR_ÉS_ALKATRÉSZEI
 10
13851.80137342085
 20
2325.642642028589
 30
0.0
 11
13859.29163460421
 21
2333.132903211952
 31
0.0
  0
LINE
  5
1EA4
  8
VENTILLÁTOR_ÉS_ALKATRÉSZEI
 10
13851.79807434975
 20
2321.149214896957
 30
0.0
 11
13859.29148311718
 21
2328.642623664385
 31
0.0
  0
LINE
  5
1EA5
  8
VENTILLÁTOR_ÉS_ALKATRÉSZEI
 10
13851.79477527865
 20
2316.655787765326
 30
0.0
 11
13859.29133163015
 21
2324.152344116818
 31
0.0
  0
LINE
  5
1EA6
  8
VENTILLÁTOR_ÉS_ALKATRÉSZEI
 10
13851.79147620756
 20
2312.162360633695
 30
0.0
 11
13859.29118014311
 21
2319.662064569251
 31
0.0
  0
LINE
  5
1EA7
  8
VENTILLÁTOR_ÉS_ALKATRÉSZEI
 10
13851.78817713646
 20
2307.668933502064
 30
0.0
 11
13859.29102865608
 21
2315.171785021683
 31
0.0
  0
LINE
  5
1EA8
  8
VENTILLÁTOR_ÉS_ALKATRÉSZEI
 10
13851.78487806536
 20
2303.175506370433
 30
0.0
 11
13859.29087716905
 21
2310.681505474116
 31
0.0
  0
LINE
  5
1EA9
  8
VENTILLÁTOR_ÉS_ALKATRÉSZEI
 10
13851.78157899427
 20
2298.682079238802
 30
0.0
 11
13859.29072568201
 21
2306.191225926549
 31
0.0
  0
LINE
  5
1EAA
  8
VENTILLÁTOR_ÉS_ALKATRÉSZEI
 10
13851.77827992317
 20
2294.188652107171
 30
0.0
 11
13859.29057419498
 21
2301.700946378981
 31
0.0
  0
LINE
  5
1EAB
  8
VENTILLÁTOR_ÉS_ALKATRÉSZEI
 10
13851.77498085207
 20
2289.69522497554
 30
0.0
 11
13859.29042270795
 21
2297.210666831415
 31
0.0
  0
LINE
  5
1EAC
  8
VENTILLÁTOR_ÉS_ALKATRÉSZEI
 10
13851.77168178098
 20
2285.201797843908
 30
0.0
 11
13859.29027122092
 21
2292.720387283847
 31
0.0
  0
LINE
  5
1EAD
  8
VENTILLÁTOR_ÉS_ALKATRÉSZEI
 10
13851.76838270988
 20
2280.708370712277
 30
0.0
 11
13859.29011973388
 21
2288.23010773628
 31
0.0
  0
LINE
  5
1EAE
  8
VENTILLÁTOR_ÉS_ALKATRÉSZEI
 10
13851.76508363878
 20
2276.214943580646
 30
0.0
 11
13859.28996824685
 21
2283.739828188713
 31
0.0
  0
LINE
  5
1EAF
  8
VENTILLÁTOR_ÉS_ALKATRÉSZEI
 10
13851.76178456769
 20
2271.721516449015
 30
0.0
 11
13859.28981675982
 21
2279.249548641145
 31
0.0
  0
LINE
  5
1EB0
  8
VENTILLÁTOR_ÉS_ALKATRÉSZEI
 10
13851.75848549659
 20
2267.228089317384
 30
0.0
 11
13859.28966527278
 21
2274.759269093578
 31
0.0
  0
LINE
  5
1EB1
  8
VENTILLÁTOR_ÉS_ALKATRÉSZEI
 10
13851.75518642549
 20
2262.734662185753
 30
0.0
 11
13859.28951378575
 21
2270.268989546011
 31
0.0
  0
LINE
  5
1EB2
  8
VENTILLÁTOR_ÉS_ALKATRÉSZEI
 10
13851.7518873544
 20
2258.241235054122
 30
0.0
 11
13859.28936229872
 21
2265.778709998443
 31
0.0
  0
LINE
  5
1EB3
  8
VENTILLÁTOR_ÉS_ALKATRÉSZEI
 10
13851.7485882833
 20
2253.747807922491
 30
0.0
 11
13859.28921081169
 21
2261.288430450876
 31
0.0
  0
LINE
  5
1EB4
  8
VENTILLÁTOR_ÉS_ALKATRÉSZEI
 10
13851.74528921221
 20
2249.25438079086
 30
0.0
 11
13859.28905932465
 21
2256.798150903309
 31
0.0
  0
LINE
  5
1EB5
  8
VENTILLÁTOR_ÉS_ALKATRÉSZEI
 10
13851.74199014111
 20
2244.760953659229
 30
0.0
 11
13859.28890783762
 21
2252.307871355742
 31
0.0
  0
LINE
  5
1EB6
  8
VENTILLÁTOR_ÉS_ALKATRÉSZEI
 10
13851.73869107001
 20
2240.267526527597
 30
0.0
 11
13859.28875635059
 21
2247.817591808174
 31
0.0
  0
LINE
  5
1EB7
  8
VENTILLÁTOR_ÉS_ALKATRÉSZEI
 10
13851.73539199892
 20
2235.774099395966
 30
0.0
 11
13859.28860486356
 21
2243.327312260607
 31
0.0
  0
LINE
  5
1EB8
  8
VENTILLÁTOR_ÉS_ALKATRÉSZEI
 10
13851.73209292782
 20
2231.280672264335
 30
0.0
 11
13859.28845337652
 21
2238.83703271304
 31
0.0
  0
LINE
  5
1EB9
  8
VENTILLÁTOR_ÉS_ALKATRÉSZEI
 10
13851.72879385672
 20
2226.787245132704
 30
0.0
 11
13859.28830188949
 21
2234.346753165473
 31
0.0
  0
LINE
  5
1EBA
  8
VENTILLÁTOR_ÉS_ALKATRÉSZEI
 10
13851.72549478563
 20
2222.293818001073
 30
0.0
 11
13859.28815040246
 21
2229.856473617906
 31
0.0
  0
LINE
  5
1EBB
  8
VENTILLÁTOR_ÉS_ALKATRÉSZEI
 10
13851.72219571453
 20
2217.800390869441
 30
0.0
 11
13859.28799891543
 21
2225.366194070338
 31
0.0
  0
LINE
  5
1EBC
  8
VENTILLÁTOR_ÉS_ALKATRÉSZEI
 10
13851.71889664343
 20
2213.30696373781
 30
0.0
 11
13859.28784742839
 21
2220.875914522771
 31
0.0
  0
LINE
  5
1EBD
  8
VENTILLÁTOR_ÉS_ALKATRÉSZEI
 10
13851.71559757234
 20
2208.813536606179
 30
0.0
 11
13859.28769594136
 21
2216.385634975204
 31
0.0
  0
LINE
  5
1EBE
  8
VENTILLÁTOR_ÉS_ALKATRÉSZEI
 10
13851.71229850124
 20
2204.320109474548
 30
0.0
 11
13859.28754445433
 21
2211.895355427636
 31
0.0
  0
LINE
  5
1EBF
  8
VENTILLÁTOR_ÉS_ALKATRÉSZEI
 10
13851.70899943014
 20
2199.826682342917
 30
0.0
 11
13859.2873929673
 21
2207.405075880069
 31
0.0
  0
LINE
  5
1EC0
  8
VENTILLÁTOR_ÉS_ALKATRÉSZEI
 10
13851.70570035905
 20
2195.333255211286
 30
0.0
 11
13859.28724148026
 21
2202.914796332502
 31
0.0
  0
LINE
  5
1EC1
  8
VENTILLÁTOR_ÉS_ALKATRÉSZEI
 10
13851.70240128795
 20
2190.839828079655
 30
0.0
 11
13859.28708999323
 21
2198.424516784934
 31
0.0
  0
LINE
  5
1EC2
  8
VENTILLÁTOR_ÉS_ALKATRÉSZEI
 10
13851.69910221685
 20
2186.346400948024
 30
0.0
 11
13859.2869385062
 21
2193.934237237367
 31
0.0
  0
LINE
  5
1EC3
  8
VENTILLÁTOR_ÉS_ALKATRÉSZEI
 10
13851.69580314576
 20
2181.852973816392
 30
0.0
 11
13859.28678701916
 21
2189.4439576898
 31
0.0
  0
LINE
  5
1EC4
  8
VENTILLÁTOR_ÉS_ALKATRÉSZEI
 10
13851.69250407466
 20
2177.359546684761
 30
0.0
 11
13859.28663553213
 21
2184.953678142233
 31
0.0
  0
LINE
  5
1EC5
  8
VENTILLÁTOR_ÉS_ALKATRÉSZEI
 10
13851.68920500356
 20
2172.86611955313
 30
0.0
 11
13859.2864840451
 21
2180.463398594666
 31
0.0
  0
LINE
  5
1EC6
  8
VENTILLÁTOR_ÉS_ALKATRÉSZEI
 10
13851.68590593247
 20
2168.372692421499
 30
0.0
 11
13859.28633255807
 21
2175.973119047098
 31
0.0
  0
LINE
  5
1EC7
  8
VENTILLÁTOR_ÉS_ALKATRÉSZEI
 10
13851.68260686137
 20
2163.879265289868
 30
0.0
 11
13859.28618107103
 21
2171.482839499531
 31
0.0
  0
LINE
  5
1EC8
  8
VENTILLÁTOR_ÉS_ALKATRÉSZEI
 10
13851.67930779027
 20
2159.385838158237
 30
0.0
 11
13859.286029584
 21
2166.992559951964
 31
0.0
  0
LINE
  5
1EC9
  8
VENTILLÁTOR_ÉS_ALKATRÉSZEI
 10
13851.67600871918
 20
2154.892411026606
 30
0.0
 11
13859.28587809697
 21
2162.502280404397
 31
0.0
  0
LINE
  5
1ECA
  8
VENTILLÁTOR_ÉS_ALKATRÉSZEI
 10
13851.67270964808
 20
2150.398983894975
 30
0.0
 11
13859.28572660994
 21
2158.012000856829
 31
0.0
  0
LINE
  5
1ECB
  8
VENTILLÁTOR_ÉS_ALKATRÉSZEI
 10
13851.66941057698
 20
2145.905556763343
 30
0.0
 11
13859.2855751229
 21
2153.521721309262
 31
0.0
  0
LINE
  5
1ECC
  8
VENTILLÁTOR_ÉS_ALKATRÉSZEI
 10
13851.66611150589
 20
2141.412129631712
 30
0.0
 11
13859.28542363587
 21
2149.031441761695
 31
0.0
  0
LINE
  5
1ECD
  8
VENTILLÁTOR_ÉS_ALKATRÉSZEI
 10
13851.66281243479
 20
2136.918702500081
 30
0.0
 11
13859.28527214884
 21
2144.541162214127
 31
0.0
  0
LINE
  5
1ECE
  8
VENTILLÁTOR_ÉS_ALKATRÉSZEI
 10
13851.65951336369
 20
2132.42527536845
 30
0.0
 11
13859.28512066181
 21
2140.05088266656
 31
0.0
  0
LINE
  5
1ECF
  8
VENTILLÁTOR_ÉS_ALKATRÉSZEI
 10
13851.6562142926
 20
2127.931848236819
 30
0.0
 11
13859.28496917477
 21
2135.560603118993
 31
0.0
  0
LINE
  5
1ED0
  8
VENTILLÁTOR_ÉS_ALKATRÉSZEI
 10
13851.6529152215
 20
2123.438421105187
 30
0.0
 11
13859.28481768774
 21
2131.070323571425
 31
0.0
  0
LINE
  5
1ED1
  8
VENTILLÁTOR_ÉS_ALKATRÉSZEI
 10
13851.64961615041
 20
2118.944993973556
 30
0.0
 11
13859.28466620071
 21
2126.580044023858
 31
0.0
  0
LINE
  5
1ED2
  8
VENTILLÁTOR_ÉS_ALKATRÉSZEI
 10
13851.64631707931
 20
2114.451566841925
 30
0.0
 11
13859.28451471367
 21
2122.089764476291
 31
0.0
  0
LINE
  5
1ED3
  8
VENTILLÁTOR_ÉS_ALKATRÉSZEI
 10
13851.64301800821
 20
2109.958139710294
 30
0.0
 11
13859.28436322664
 21
2117.599484928724
 31
0.0
  0
LINE
  5
1ED4
  8
VENTILLÁTOR_ÉS_ALKATRÉSZEI
 10
13851.63971893712
 20
2105.464712578663
 30
0.0
 11
13859.28421173961
 21
2113.109205381156
 31
0.0
  0
LINE
  5
1ED5
  8
VENTILLÁTOR_ÉS_ALKATRÉSZEI
 10
13851.63641986602
 20
2100.971285447032
 30
0.0
 11
13859.28406025258
 21
2108.618925833589
 31
0.0
  0
LINE
  5
1ED6
  8
VENTILLÁTOR_ÉS_ALKATRÉSZEI
 10
13851.63312079492
 20
2096.477858315401
 30
0.0
 11
13859.28390876554
 21
2104.128646286022
 31
0.0
  0
LINE
  5
1ED7
  8
VENTILLÁTOR_ÉS_ALKATRÉSZEI
 10
13851.62982172383
 20
2091.98443118377
 30
0.0
 11
13859.28375727851
 21
2099.638366738454
 31
0.0
  0
LINE
  5
1ED8
  8
VENTILLÁTOR_ÉS_ALKATRÉSZEI
 10
13851.62652265273
 20
2087.491004052139
 30
0.0
 11
13859.28360579148
 21
2095.148087190887
 31
0.0
  0
LINE
  5
1ED9
  8
VENTILLÁTOR_ÉS_ALKATRÉSZEI
 10
13851.62322358163
 20
2082.997576920508
 30
0.0
 11
13859.28345430445
 21
2090.65780764332
 31
0.0
  0
LINE
  5
1EDA
  8
VENTILLÁTOR_ÉS_ALKATRÉSZEI
 10
13851.61992451054
 20
2078.504149788876
 30
0.0
 11
13859.28330281741
 21
2086.167528095753
 31
0.0
  0
LINE
  5
1EDB
  8
VENTILLÁTOR_ÉS_ALKATRÉSZEI
 10
13851.61662543944
 20
2074.010722657245
 30
0.0
 11
13859.28315133038
 21
2081.677248548186
 31
0.0
  0
LINE
  5
1EDC
  8
VENTILLÁTOR_ÉS_ALKATRÉSZEI
 10
13851.61332636834
 20
2069.517295525614
 30
0.0
 11
13859.28299984335
 21
2077.186969000618
 31
0.0
  0
LINE
  5
1EDD
  8
VENTILLÁTOR_ÉS_ALKATRÉSZEI
 10
13851.61002729725
 20
2065.023868393983
 30
0.0
 11
13859.28284835632
 21
2072.696689453051
 31
0.0
  0
LINE
  5
1EDE
  8
VENTILLÁTOR_ÉS_ALKATRÉSZEI
 10
13851.60672822615
 20
2060.530441262352
 30
0.0
 11
13859.28269686928
 21
2068.206409905484
 31
0.0
  0
LINE
  5
1EDF
  8
VENTILLÁTOR_ÉS_ALKATRÉSZEI
 10
13851.60342915505
 20
2056.03701413072
 30
0.0
 11
13859.28254538225
 21
2063.716130357916
 31
0.0
  0
LINE
  5
1EE0
  8
VENTILLÁTOR_ÉS_ALKATRÉSZEI
 10
13851.60013008396
 20
2051.543586999089
 30
0.0
 11
13859.28239389522
 21
2059.225850810349
 31
0.0
  0
LINE
  5
1EE1
  8
VENTILLÁTOR_ÉS_ALKATRÉSZEI
 10
13851.59683101286
 20
2047.050159867458
 30
0.0
 11
13859.28224240818
 21
2054.735571262782
 31
0.0
  0
LINE
  5
1EE2
  8
VENTILLÁTOR_ÉS_ALKATRÉSZEI
 10
13851.59353194176
 20
2042.556732735827
 30
0.0
 11
13859.28209092115
 21
2050.245291715215
 31
0.0
  0
LINE
  5
1EE3
  8
VENTILLÁTOR_ÉS_ALKATRÉSZEI
 10
13851.59023287067
 20
2038.063305604196
 30
0.0
 11
13859.28193943412
 21
2045.755012167647
 31
0.0
  0
LINE
  5
1EE4
  8
VENTILLÁTOR_ÉS_ALKATRÉSZEI
 10
13851.58693379957
 20
2033.569878472565
 30
0.0
 11
13859.28178794709
 21
2041.26473262008
 31
0.0
  0
LINE
  5
1EE5
  8
VENTILLÁTOR_ÉS_ALKATRÉSZEI
 10
13851.58363472847
 20
2029.076451340934
 30
0.0
 11
13859.28163646005
 21
2036.774453072513
 31
0.0
  0
LINE
  5
1EE6
  8
VENTILLÁTOR_ÉS_ALKATRÉSZEI
 10
13851.58033565738
 20
2024.583024209302
 30
0.0
 11
13859.28148497302
 21
2032.284173524946
 31
0.0
  0
LINE
  5
1EE7
  8
VENTILLÁTOR_ÉS_ALKATRÉSZEI
 10
13851.57703658628
 20
2020.089597077671
 30
0.0
 11
13859.28133348599
 21
2027.793893977378
 31
0.0
  0
LINE
  5
1EE8
  8
VENTILLÁTOR_ÉS_ALKATRÉSZEI
 10
13851.57373751518
 20
2015.59616994604
 30
0.0
 11
13859.28118199895
 21
2023.303614429811
 31
0.0
  0
LINE
  5
1EE9
  8
VENTILLÁTOR_ÉS_ALKATRÉSZEI
 10
13851.57043844409
 20
2011.102742814409
 30
0.0
 11
13859.28103051192
 21
2018.813334882244
 31
0.0
  0
LINE
  5
1EEA
  8
VENTILLÁTOR_ÉS_ALKATRÉSZEI
 10
13851.56713937299
 20
2006.609315682778
 30
0.0
 11
13859.28087902489
 21
2014.323055334676
 31
0.0
  0
LINE
  5
1EEB
  8
VENTILLÁTOR_ÉS_ALKATRÉSZEI
 10
13851.56384030189
 20
2002.115888551147
 30
0.0
 11
13859.28072753786
 21
2009.832775787109
 31
0.0
  0
LINE
  5
1EEC
  8
VENTILLÁTOR_ÉS_ALKATRÉSZEI
 10
13851.5605412308
 20
1997.622461419516
 30
0.0
 11
13859.28057605083
 21
2005.342496239542
 31
0.0
  0
LINE
  5
1EED
  8
VENTILLÁTOR_ÉS_ALKATRÉSZEI
 10
13851.5572421597
 20
1993.129034287885
 30
0.0
 11
13859.28042456379
 21
2000.852216691975
 31
0.0
  0
LINE
  5
1EEE
  8
VENTILLÁTOR_ÉS_ALKATRÉSZEI
 10
13851.55394308861
 20
1988.635607156253
 30
0.0
 11
13859.28027307676
 21
1996.361937144407
 31
0.0
  0
LINE
  5
1EEF
  8
VENTILLÁTOR_ÉS_ALKATRÉSZEI
 10
13851.55064401751
 20
1984.142180024622
 30
0.0
 11
13859.28012158973
 21
1991.87165759684
 31
0.0
  0
LINE
  5
1EF0
  8
VENTILLÁTOR_ÉS_ALKATRÉSZEI
 10
13851.54734494641
 20
1979.648752892991
 30
0.0
 11
13859.27997010269
 21
1987.381378049273
 31
0.0
  0
LINE
  5
1EF1
  8
VENTILLÁTOR_ÉS_ALKATRÉSZEI
 10
13851.54404587532
 20
1975.15532576136
 30
0.0
 11
13859.27981861566
 21
1982.891098501706
 31
0.0
  0
LINE
  5
1EF2
  8
VENTILLÁTOR_ÉS_ALKATRÉSZEI
 10
13851.54074680422
 20
1970.661898629729
 30
0.0
 11
13859.27966712863
 21
1978.400818954138
 31
0.0
  0
LINE
  5
1EF3
  8
VENTILLÁTOR_ÉS_ALKATRÉSZEI
 10
13851.53744773312
 20
1966.168471498097
 30
0.0
 11
13859.2795156416
 21
1973.910539406571
 31
0.0
  0
LINE
  5
1EF4
  8
VENTILLÁTOR_ÉS_ALKATRÉSZEI
 10
13851.53414866203
 20
1961.675044366466
 30
0.0
 11
13859.27936415456
 21
1969.420259859004
 31
0.0
  0
LINE
  5
1EF5
  8
VENTILLÁTOR_ÉS_ALKATRÉSZEI
 10
13851.53084959093
 20
1957.181617234835
 30
0.0
 11
13859.27921266753
 21
1964.929980311437
 31
0.0
  0
LINE
  5
1EF6
  8
VENTILLÁTOR_ÉS_ALKATRÉSZEI
 10
13851.52755051983
 20
1952.688190103204
 30
0.0
 11
13859.2790611805
 21
1960.439700763869
 31
0.0
  0
LINE
  5
1EF7
  8
VENTILLÁTOR_ÉS_ALKATRÉSZEI
 10
13851.52425144874
 20
1948.194762971573
 30
0.0
 11
13859.27890969346
 21
1955.949421216302
 31
0.0
  0
LINE
  5
1EF8
  8
VENTILLÁTOR_ÉS_ALKATRÉSZEI
 10
13851.52095237764
 20
1943.701335839942
 30
0.0
 11
13859.27875820643
 21
1951.459141668735
 31
0.0
  0
LINE
  5
1EF9
  8
VENTILLÁTOR_ÉS_ALKATRÉSZEI
 10
13851.51765330654
 20
1939.207908708311
 30
0.0
 11
13859.2786067194
 21
1946.968862121168
 31
0.0
  0
LINE
  5
1EFA
  8
VENTILLÁTOR_ÉS_ALKATRÉSZEI
 10
13851.51435423545
 20
1934.71448157668
 30
0.0
 11
13859.27845523237
 21
1942.4785825736
 31
0.0
  0
LINE
  5
1EFB
  8
VENTILLÁTOR_ÉS_ALKATRÉSZEI
 10
13851.51105516435
 20
1930.221054445048
 30
0.0
 11
13859.27830374534
 21
1937.988303026033
 31
0.0
  0
LINE
  5
1EFC
  8
VENTILLÁTOR_ÉS_ALKATRÉSZEI
 10
13851.50775609325
 20
1925.727627313418
 30
0.0
 11
13859.2781522583
 21
1933.498023478466
 31
0.0
  0
LINE
  5
1EFD
  8
VENTILLÁTOR_ÉS_ALKATRÉSZEI
 10
13851.50445702216
 20
1921.234200181786
 30
0.0
 11
13859.27800077127
 21
1929.007743930898
 31
0.0
  0
LINE
  5
1EFE
  8
VENTILLÁTOR_ÉS_ALKATRÉSZEI
 10
13851.50115795106
 20
1916.740773050155
 30
0.0
 11
13859.27784928424
 21
1924.517464383331
 31
0.0
  0
LINE
  5
1EFF
  8
VENTILLÁTOR_ÉS_ALKATRÉSZEI
 10
13851.49785887996
 20
1912.247345918524
 30
0.0
 11
13859.2776977972
 21
1920.027184835764
 31
0.0
  0
LINE
  5
1F00
  8
VENTILLÁTOR_ÉS_ALKATRÉSZEI
 10
13851.49455980887
 20
1907.753918786893
 30
0.0
 11
13859.27754631017
 21
1915.536905288197
 31
0.0
  0
LINE
  5
1F01
  8
VENTILLÁTOR_ÉS_ALKATRÉSZEI
 10
13851.49126073777
 20
1903.260491655262
 30
0.0
 11
13859.27739482314
 21
1911.046625740629
 31
0.0
  0
LINE
  5
1F02
  8
VENTILLÁTOR_ÉS_ALKATRÉSZEI
 10
13851.48796166667
 20
1898.767064523631
 30
0.0
 11
13859.27724333611
 21
1906.556346193062
 31
0.0
  0
LINE
  5
1F03
  8
VENTILLÁTOR_ÉS_ALKATRÉSZEI
 10
13851.48466259558
 20
1894.273637391999
 30
0.0
 11
13859.27709184907
 21
1902.066066645495
 31
0.0
  0
LINE
  5
1F04
  8
VENTILLÁTOR_ÉS_ALKATRÉSZEI
 10
13851.48136352448
 20
1889.780210260368
 30
0.0
 11
13859.27694036204
 21
1897.575787097928
 31
0.0
  0
LINE
  5
1F05
  8
VENTILLÁTOR_ÉS_ALKATRÉSZEI
 10
13851.47806445339
 20
1885.286783128737
 30
0.0
 11
13859.27678887501
 21
1893.08550755036
 31
0.0
  0
LINE
  5
1F06
  8
VENTILLÁTOR_ÉS_ALKATRÉSZEI
 10
13851.47476538229
 20
1880.793355997106
 30
0.0
 11
13859.27663738797
 21
1888.595228002793
 31
0.0
  0
LINE
  5
1F07
  8
VENTILLÁTOR_ÉS_ALKATRÉSZEI
 10
13851.47146631119
 20
1876.299928865475
 30
0.0
 11
13859.27648590094
 21
1884.104948455226
 31
0.0
  0
LINE
  5
1F08
  8
VENTILLÁTOR_ÉS_ALKATRÉSZEI
 10
13851.46816724009
 20
1871.806501733844
 30
0.0
 11
13859.27633441391
 21
1879.614668907659
 31
0.0
  0
LINE
  5
1F09
  8
VENTILLÁTOR_ÉS_ALKATRÉSZEI
 10
13851.464868169
 20
1867.313074602213
 30
0.0
 11
13859.27618292688
 21
1875.124389360091
 31
0.0
  0
LINE
  5
1F0A
  8
VENTILLÁTOR_ÉS_ALKATRÉSZEI
 10
13851.4615690979
 20
1862.819647470581
 30
0.0
 11
13859.27603143984
 21
1870.634109812524
 31
0.0
  0
LINE
  5
1F0B
  8
VENTILLÁTOR_ÉS_ALKATRÉSZEI
 10
13851.45827002681
 20
1858.32622033895
 30
0.0
 11
13859.27587995281
 21
1866.143830264957
 31
0.0
  0
LINE
  5
1F0C
  8
VENTILLÁTOR_ÉS_ALKATRÉSZEI
 10
13851.45497095571
 20
1853.832793207319
 30
0.0
 11
13859.27572846578
 21
1861.653550717389
 31
0.0
  0
LINE
  5
1F0D
  8
VENTILLÁTOR_ÉS_ALKATRÉSZEI
 10
13851.45167188461
 20
1849.339366075688
 30
0.0
 11
13859.27557697875
 21
1857.163271169822
 31
0.0
  0
LINE
  5
1F0E
  8
VENTILLÁTOR_ÉS_ALKATRÉSZEI
 10
13851.44837281352
 20
1844.845938944057
 30
0.0
 11
13859.27542549171
 21
1852.672991622255
 31
0.0
  0
LINE
  5
1F0F
  8
VENTILLÁTOR_ÉS_ALKATRÉSZEI
 10
13851.44507374242
 20
1840.352511812426
 30
0.0
 11
13859.27527400468
 21
1848.182712074688
 31
0.0
  0
LINE
  5
1F10
  8
VENTILLÁTOR_ÉS_ALKATRÉSZEI
 10
13851.44177467132
 20
1835.859084680795
 30
0.0
 11
13859.27512251765
 21
1843.69243252712
 31
0.0
  0
LINE
  5
1F11
  8
VENTILLÁTOR_ÉS_ALKATRÉSZEI
 10
13851.43847560023
 20
1831.365657549164
 30
0.0
 11
13859.27497103062
 21
1839.202152979553
 31
0.0
  0
LINE
  5
1F12
  8
VENTILLÁTOR_ÉS_ALKATRÉSZEI
 10
13852.0629461116
 20
1827.5
 30
0.0
 11
13859.27481954358
 21
1834.711873431989
 31
0.0
  0
LINE
  5
1F13
  8
VENTILLÁTOR_ÉS_ALKATRÉSZEI
 10
13856.55307417213
 20
1827.5
 30
0.0
 11
13859.27466805655
 21
1830.221593884422
 31
0.0
  0
ENDBLK
  5
1FA3
  8
0
  0
BLOCK
  8
0
  2
*X13
 70
     1
 10
0.0
 20
0.0
 30
0.0
  3
*X13
  1

  0
TEXT
  5
1F15
  8
VENTILLÁTOR_ÉS_ALKATRÉSZEI
  6
CONTINUOUS
 10
13679.79629625766
 20
2632.335295325475
 30
0.0
 40
40.0
  1
2 db
  0
TEXT
  5
1F16
  8
VENTILLÁTOR_ÉS_ALKATRÉSZEI
  6
CONTINUOUS
 10
13679.79629625766
 20
2565.668628658809
 30
0.0
 40
40.0
  1
rács
  0
ENDBLK
  5
1FA5
  8
0
  0
BLOCK
  8
0
  2
*X14
 70
     1
 10
0.0
 20
0.0
 30
0.0
  3
*X14
  1

  0
TEXT
  5
1F18
  8
VENTILLÁTOR_ÉS_ALKATRÉSZEI
  6
CONTINUOUS
 10
12805.53463523569
 20
1960.777787852768
 30
0.0
 40
40.0
  1
hegesztett lemez
  0
TEXT
  5
1F19
  8
VENTILLÁTOR_ÉS_ALKATRÉSZEI
  6
CONTINUOUS
 10
12805.53463523569
 20
1894.111121186102
 30
0.0
 40
40.0
  1
kúp
  0
ENDBLK
  5
1FA7
  8
0
  0
BLOCK
  8
0
  2
*X15
 70
     1
 10
0.0
 20
0.0
 30
0.0
  3
*X15
  1

  0
TEXT
  5
1F1B
  8
VENTILLÁTOR_ÉS_ALKATRÉSZEI
  6
CONTINUOUS
 10
14880.61362140662
 20
3057.537093892139
 30
0.0
 40
40.0
  1
forgórész
  0
TEXT
  5
1F1C
  8
VENTILLÁTOR_ÉS_ALKATRÉSZEI
  6
CONTINUOUS
 10
14880.61362140662
 20
2990.870427225473
 30
0.0
 40
40.0
  1
lapátok
  0
ENDBLK
  5
1FA9
  8
0
  0
BLOCK
  8
0
  2
*X16
 70
     1
 10
0.0
 20
0.0
 30
0.0
  3
*X16
  1

  0
TEXT
  5
1F1E
  8
VENTILLÁTOR_ÉS_ALKATRÉSZEI
  6
CONTINUOUS
 10
16010.49511779878
 20
3063.628657344917
 30
0.0
 40
40.0
  1
állórész
  0
TEXT
  5
1F1F
  8
VENTILLÁTOR_ÉS_ALKATRÉSZEI
  6
CONTINUOUS
 10
16010.49511779878
 20
2996.961990678251
 30
0.0
 40
40.0
  1
lapátok
  0
ENDBLK
  5
1FAB
  8
0
  0
ENDSEC
  0
SECTION
  2
ENTITIES
  0
INSERT
  5
108D
  8
DIFFUZOR
 62
     0
  2
A-54643
 10
877.3369856812922
 20
137.5489040902719
 30
0.0
  0
INSERT
  5
10A7
  8
DIFFUZOR
 62
     0
  2
B-44563
 10
594.2305772889791
 20
359.7794461051698
 30
0.0
  0
INSERT
  5
10BF
  8
DIFFUZOR
 62
     0
  2
B-64529
 10
601.0369329904431
 20
140.2744747329559
 30
0.0
  0
INSERT
  5
10D7
  8
DIFFUZOR
 62
     0
  2
B-64543
 10
602.7385219158091
 20
-84.335263415356
 30
0.0
  0
INSERT
  5
10F2
  8
DIFFUZOR
 62
     0
  2
A-55869
 10
1010.18736804636
 20
369.7381046417551
 30
0.0
  0
INSERT
  5
110A
  8
DIFFUZOR
 62
     0
  2
A-53345
 10
879.5601652277652
 20
-82.0155513047375
 30
0.0
  0
INSERT
  5
1155
  8
DIFFUZOR
 62
     0
  2
B-89987
 10
1426.144158803741
 20
379.6967631783405
 30
0.0
  0
INSERT
  5
155C
  8
DIFFUZOR
  2
B-76843
 10
1151.381923043095
 20
75.05797080260453
 30
0.0
  0
LINE
  5
1B64
  8
TALAJSZINT
 10
20000.0
 20
0.0
 30
0.0
 11
-25.10578246597288
 21
0.0000000000024524
 31
0.0
  0
LINE
  5
1B65
  8
TALAJSZINT
 10
20000.0
 20
0.0
 30
0.0
 11
20000.0
 21
5022.201808371093
 31
0.0
  0
TEXT
  5
1B66
  8
TALAJSZINT
  6
CONTINUOUS
 10
13300.0
 20
-302.6666666666666
 30
0.0
 40
88.0
  1
A 0 talajszint a csatorna mérõtere alatt lévõ beton szintje
  0
LINE
  5
1B6F
  8
MOTOR_SZÍJHAJTÁS
 10
14490.0
 20
130.0
 30
0.0
 11
16350.0
 21
130.0
 31
0.0
  0
LINE
  5
1B75
  8
DIFFUZOR
 10
12285.0
 20
1050.0
 30
0.0
 11
13985.0
 21
502.5
 31
0.0
  0
LINE
  5
1B76
  8
DIFFUZOR
 10
12285.0
 20
1110.0
 30
0.0
 11
12285.0
 21
1110.0
 31
0.0
  0
LINE
  5
1B77
  8
DIFFUZOR
 10
12285.0
 20
1050.0
 30
0.0
 11
12285.0
 21
2605.0
 31
0.0
  0
LINE
  5
1B79
  8
DIFFUZOR
 10
12285.0
 20
2605.0
 30
0.0
 11
13985.0
 21
3152.5
 31
0.0
  0
LINE
  5
1B7A
  8
DIFFUZOR
 10
13985.0
 20
3152.5
 30
0.0
 11
16350.0
 21
3152.5
 31
0.0
  0
LINE
  5
1B7C
  8
DIFFUZOR
 10
13985.0
 20
3152.5
 30
0.0
 11
13985.0
 21
502.5
 31
0.0
  0
LINE
  5
1B7E
  8
FA_SZERKEZETI_ELEMEK
 10
12285.0
 20
1050.0
 30
0.0
 11
12285.0
 21
3090.0
 31
0.0
  0
LINE
  5
1B7F
  8
FA_SZERKEZETI_ELEMEK
 10
12285.0
 20
3090.0
 30
0.0
 11
10175.0
 21
3090.0
 31
0.0
  0
LINE
  5
1B80
  8
FA_SZERKEZETI_ELEMEK
 10
10180.0
 20
3090.0
 30
0.0
 11
10180.0
 21
1050.0
 31
0.0
  0
LINE
  5
1B81
  8
FA_SZERKEZETI_ELEMEK
 10
10175.0
 20
1050.0
 30
0.0
 11
12285.0
 21
1050.0
 31
0.0
  0
LINE
  5
1B82
  8
FA_SZERKEZETI_ELEMEK
 10
10180.0
 20
1050.0
 30
0.0
 11
10180.0
 21
2605.0
 31
0.0
  0
LINE
  5
1B83
  8
FA_SZERKEZETI_ELEMEK
 10
8135.0
 20
2605.0
 30
5.0
 11
6500.0
 21
2605.0
 31
5.0
  0
LINE
  5
1B84
  8
FA_SZERKEZETI_ELEMEK
 10
6500.0
 20
2605.0
 30
5.0
 11
6500.0
 21
1050.0
 31
5.0
  0
LINE
  5
1B85
  8
FA_SZERKEZETI_ELEMEK
 10
6500.0
 20
1050.0
 30
5.0
 11
8135.0
 21
1050.0
 31
5.0
  0
LINE
  5
1B86
  8
FA_SZERKEZETI_ELEMEK
 10
6500.0
 20
2605.0
 30
5.0
 11
4660.0
 21
2605.0
 31
5.0
  0
LINE
  5
1B87
  8
FA_SZERKEZETI_ELEMEK
 10
4660.0
 20
2604.5
 30
5.0
 11
4660.0
 21
1049.5
 31
5.0
  0
LINE
  5
1B88
  8
FA_SZERKEZETI_ELEMEK
 10
4660.0
 20
1050.0
 30
5.0
 11
6500.0
 21
1050.0
 31
5.0
  0
LINE
  5
1B91
  8
DIFFUZOR
 10
13985.0
 20
502.5
 30
0.0
 11
16350.0
 21
502.5
 31
0.0
  0
LINE
  5
1B99
  8
KÖZÉPVONAL
 10
20000.0
 20
1827.5
 30
0.0
 11
0.0
 21
1827.5
 31
0.0
  0
LINE
  5
1BA4
  8
NYITHATO_ABLAKOK
 10
10210.0
 20
1050.0
 30
0.0
 11
10210.0
 21
2250.0
 31
0.0
  0
LINE
  5
1BA5
  8
NYITHATO_ABLAKOK
 10
10210.0
 20
2250.0
 30
0.0
 11
12190.0
 21
2250.0
 31
0.0
  0
LINE
  5
1BA6
  8
NYITHATO_ABLAKOK
 10
12190.0
 20
2250.0
 30
0.0
 11
12190.0
 21
1050.0
 31
0.0
  0
LINE
  5
1BA7
  8
NYITHATO_ABLAKOK
 10
12190.0
 20
1050.0
 30
0.0
 11
10210.0
 21
1050.0
 31
0.0
  0
LINE
  5
1BA8
  8
NYITHATO_ABLAKOK
 10
4960.0
 20
1050.0
 30
5.0
 11
4960.0
 21
2519.5
 31
5.0
  0
LINE
  5
1BA9
  8
NYITHATO_ABLAKOK
 10
4960.0
 20
2520.0
 30
5.0
 11
6200.0
 21
2520.0
 31
5.0
  0
LINE
  5
1BAA
  8
NYITHATO_ABLAKOK
 10
6200.0
 20
2519.5
 30
5.0
 11
6200.0
 21
1050.0
 31
5.0
  0
LINE
  5
1BAB
  8
NYITHATO_ABLAKOK
 10
6200.0
 20
1050.0
 30
5.0
 11
4960.0
 21
1050.0
 31
5.0
  0
LINE
  5
1BAC
  8
KONFUZOR
 10
2730.0
 20
362.0
 30
5.0
 11
2730.0
 21
3292.0
 31
5.0
  0
LINE
  5
1BAD
  8
KONFUZOR
 10
4660.0
 20
2605.0
 30
5.0
 11
4660.0
 21
1050.0
 31
5.0
  0
LINE
  5
1BB0
  8
KONFUZOR
 10
4770.0
 20
1827.5
 30
0.0
 11
4770.0
 21
1827.5
 31
0.0
  0
POLYLINE
  5
1BB7
  8
KONFUZOR
 66
     1
 10
0.0
 20
0.0
 30
5.0
  0
VERTEX
  5
2140
  8
KONFUZOR
 10
2730.0
 20
3292.0
 30
5.0
  0
VERTEX
  5
2141
  8
KONFUZOR
 10
2765.834622041214
 20
3282.636852444666
 30
5.0
  0
VERTEX
  5
2142
  8
KONFUZOR
 10
2801.658700480676
 20
3273.243562477242
 30
5.0
  0
VERTEX
  5
2143
  8
KONFUZOR
 10
2837.461691716635
 20
3263.789987685637
 30
5.0
  0
VERTEX
  5
2144
  8
KONFUZOR
 10
2873.233052147341
 20
3254.245985657763
 30
5.0
  0
VERTEX
  5
2145
  8
KONFUZOR
 10
2908.962238171042
 20
3244.581413981528
 30
5.0
  0
VERTEX
  5
2146
  8
KONFUZOR
 10
2944.638706185987
 20
3234.766130244844
 30
5.0
  0
VERTEX
  5
2147
  8
KONFUZOR
 10
2980.251912590425
 20
3224.769992035619
 30
5.0
  0
VERTEX
  5
2148
  8
KONFUZOR
 10
3015.791313782604
 20
3214.562856941763
 30
5.0
  0
VERTEX
  5
2149
  8
KONFUZOR
 10
3051.246366160774
 20
3204.114582551187
 30
5.0
  0
VERTEX
  5
214A
  8
KONFUZOR
 10
3086.606526123183
 20
3193.395026451801
 30
5.0
  0
VERTEX
  5
214B
  8
KONFUZOR
 10
3121.86125006808
 20
3182.374046231515
 30
5.0
  0
VERTEX
  5
214C
  8
KONFUZOR
 10
3156.999994393714
 20
3171.021499478237
 30
5.0
  0
VERTEX
  5
214D
  8
KONFUZOR
 10
3192.012215498333
 20
3159.30724377988
 30
5.0
  0
VERTEX
  5
214E
  8
KONFUZOR
 10
3226.887369780186
 20
3147.201136724352
 30
5.0
  0
VERTEX
  5
214F
  8
KONFUZOR
 10
3261.614913637523
 20
3134.673035899563
 30
5.0
  0
VERTEX
  5
2150
  8
KONFUZOR
 10
3296.183578897883
 20
3121.694017307538
 30
5.0
  0
VERTEX
  5
2151
  8
KONFUZOR
 10
3330.578729344748
 20
3108.240820541679
 30
5.0
  0
VERTEX
  5
2152
  8
KONFUZOR
 10
3364.784750877286
 20
3094.291829573274
 30
5.0
  0
VERTEX
  5
2153
  8
KONFUZOR
 10
3398.786029289031
 20
3079.825428551237
 30
5.0
  0
VERTEX
  5
2154
  8
KONFUZOR
 10
3432.566950373523
 20
3064.820001624482
 30
5.0
  0
VERTEX
  5
2155
  8
KONFUZOR
 10
3466.111899924296
 20
3049.253932941924
 30
5.0
  0
VERTEX
  5
2156
  8
KONFUZOR
 10
3499.405263734888
 20
3033.105606652474
 30
5.0
  0
VERTEX
  5
2157
  8
KONFUZOR
 10
3532.431427598835
 20
3016.353406905049
 30
5.0
  0
VERTEX
  5
2158
  8
KONFUZOR
 10
3565.174777309673
 20
2998.975717848561
 30
5.0
  0
VERTEX
  5
2159
  8
KONFUZOR
 10
3597.61969866094
 20
2980.950923631925
 30
5.0
  0
VERTEX
  5
215A
  8
KONFUZOR
 10
3629.750577446172
 20
2962.257408404053
 30
5.0
  0
VERTEX
  5
215B
  8
KONFUZOR
 10
3661.553227855071
 20
2942.876629858844
 30
5.0
  0
VERTEX
  5
215C
  8
KONFUZOR
 10
3693.056446925139
 20
2922.882533838361
 30
5.0
  0
VERTEX
  5
215D
  8
KONFUZOR
 10
3724.338532111388
 20
2902.455578483956
 30
5.0
  0
VERTEX
  5
215E
  8
KONFUZOR
 10
3755.480520928942
 20
2881.782117848921
 30
5.0
  0
VERTEX
  5
215F
  8
KONFUZOR
 10
3786.563450892928
 20
2861.04850598655
 30
5.0
  0
VERTEX
  5
2160
  8
KONFUZOR
 10
3817.668359518467
 20
2840.441096950133
 30
5.0
  0
VERTEX
  5
2161
  8
KONFUZOR
 10
3848.876284320685
 20
2820.146244792965
 30
5.0
  0
VERTEX
  5
2162
  8
KONFUZOR
 10
3880.268262814704
 20
2800.350303568337
 30
5.0
  0
VERTEX
  5
2163
  8
KONFUZOR
 10
3911.925332515652
 20
2781.239627329543
 30
5.0
  0
VERTEX
  5
2164
  8
KONFUZOR
 10
3943.928530938651
 20
2763.000570129875
 30
5.0
  0
VERTEX
  5
2165
  8
KONFUZOR
 10
3976.358895598825
 20
2745.819486022624
 30
5.0
  0
VERTEX
  5
2166
  8
KONFUZOR
 10
4009.297464011298
 20
2729.882729061086
 30
5.0
  0
VERTEX
  5
2167
  8
KONFUZOR
 10
4042.825273691197
 20
2715.376653298551
 30
5.0
  0
VERTEX
  5
2168
  8
KONFUZOR
 10
4077.022099760768
 20
2702.484923163571
 30
5.0
  0
VERTEX
  5
2169
  8
KONFUZOR
 10
4111.898814436565
 20
2691.244400164924
 30
5.0
  0
VERTEX
  5
216A
  8
KONFUZOR
 10
4147.363248441769
 20
2681.472408014964
 30
5.0
  0
VERTEX
  5
216B
  8
KONFUZOR
 10
4183.314793841545
 20
2672.968291218581
 30
5.0
  0
VERTEX
  5
216C
  8
KONFUZOR
 10
4219.652842701054
 20
2665.531394280665
 30
5.0
  0
VERTEX
  5
216D
  8
KONFUZOR
 10
4256.27678708546
 20
2658.961061706106
 30
5.0
  0
VERTEX
  5
216E
  8
KONFUZOR
 10
4293.086019059925
 20
2653.056637999794
 30
5.0
  0
VERTEX
  5
216F
  8
KONFUZOR
 10
4329.979930689613
 20
2647.617467666621
 30
5.0
  0
VERTEX
  5
2170
  8
KONFUZOR
 10
4366.858861366264
 20
2642.444479883103
 30
5.0
  0
VERTEX
  5
2171
  8
KONFUZOR
 10
4403.666773929628
 20
2637.411576380176
 30
5.0
  0
VERTEX
  5
2172
  8
KONFUZOR
 10
4440.408578399334
 20
2632.494610284265
 30
5.0
  0
VERTEX
  5
2173
  8
KONFUZOR
 10
4477.09371878876
 20
2627.677019108653
 30
5.0
  0
VERTEX
  5
2174
  8
KONFUZOR
 10
4513.731639111286
 20
2622.942240366623
 30
5.0
  0
VERTEX
  5
2175
  8
KONFUZOR
 10
4550.331783380294
 20
2618.273711571459
 30
5.0
  0
VERTEX
  5
2176
  8
KONFUZOR
 10
4586.903595609161
 20
2613.654870236445
 30
5.0
  0
VERTEX
  5
2177
  8
KONFUZOR
 10
4623.45651981127
 20
2609.069153874865
 30
5.0
  0
VERTEX
  5
2178
  8
KONFUZOR
 10
4660.0
 20
2604.5
 30
5.0
  0
SEQEND
  5
21B5
  8
KONFUZOR
  0
POLYLINE
  5
1BC5
  8
KONFUZOR
 66
     1
 10
0.0
 20
0.0
 30
5.0
  0
VERTEX
  5
2179
  8
KONFUZOR
 10
2730.0
 20
362.0
 30
5.0
  0
VERTEX
  5
217A
  8
KONFUZOR
 10
2765.834622041214
 20
371.3631475553342
 30
5.0
  0
VERTEX
  5
217B
  8
KONFUZOR
 10
2801.658700480676
 20
380.7564375227585
 30
5.0
  0
VERTEX
  5
217C
  8
KONFUZOR
 10
2837.461691716635
 20
390.2100123143628
 30
5.0
  0
VERTEX
  5
217D
  8
KONFUZOR
 10
2873.233052147341
 20
399.7540143422372
 30
5.0
  0
VERTEX
  5
217E
  8
KONFUZOR
 10
2908.962238171042
 20
409.4185860184718
 30
5.0
  0
VERTEX
  5
217F
  8
KONFUZOR
 10
2944.638706185987
 20
419.2338697551567
 30
5.0
  0
VERTEX
  5
2180
  8
KONFUZOR
 10
2980.251912590425
 20
429.2300079643817
 30
5.0
  0
VERTEX
  5
2181
  8
KONFUZOR
 10
3015.791313782604
 20
439.437143058237
 30
5.0
  0
VERTEX
  5
2182
  8
KONFUZOR
 10
3051.246366160774
 20
449.8854174488127
 30
5.0
  0
VERTEX
  5
2183
  8
KONFUZOR
 10
3086.606526123183
 20
460.6049735481989
 30
5.0
  0
VERTEX
  5
2184
  8
KONFUZOR
 10
3121.86125006808
 20
471.6259537684853
 30
5.0
  0
VERTEX
  5
2185
  8
KONFUZOR
 10
3156.999994393714
 20
482.9785005217622
 30
5.0
  0
VERTEX
  5
2186
  8
KONFUZOR
 10
3192.012215498333
 20
494.6927562201196
 30
5.0
  0
VERTEX
  5
2187
  8
KONFUZOR
 10
3226.887369780186
 20
506.7988632756476
 30
5.0
  0
VERTEX
  5
2188
  8
KONFUZOR
 10
3261.614913637523
 20
519.326964100436
 30
5.0
  0
VERTEX
  5
2189
  8
KONFUZOR
 10
3296.183578897883
 20
532.3059826924616
 30
5.0
  0
VERTEX
  5
218A
  8
KONFUZOR
 10
3330.578729344748
 20
545.759179458321
 30
5.0
  0
VERTEX
  5
218B
  8
KONFUZOR
 10
3364.784750877286
 20
559.708170426726
 30
5.0
  0
VERTEX
  5
218C
  8
KONFUZOR
 10
3398.786029289031
 20
574.1745714487629
 30
5.0
  0
VERTEX
  5
218D
  8
KONFUZOR
 10
3432.566950373523
 20
589.1799983755177
 30
5.0
  0
VERTEX
  5
218E
  8
KONFUZOR
 10
3466.111899924296
 20
604.7460670580766
 30
5.0
  0
VERTEX
  5
218F
  8
KONFUZOR
 10
3499.405263734888
 20
620.8943933475258
 30
5.0
  0
VERTEX
  5
2190
  8
KONFUZOR
 10
3532.431427598835
 20
637.6465930949514
 30
5.0
  0
VERTEX
  5
2191
  8
KONFUZOR
 10
3565.174777309673
 20
655.0242821514396
 30
5.0
  0
VERTEX
  5
2192
  8
KONFUZOR
 10
3597.61969866094
 20
673.0490763680765
 30
5.0
  0
VERTEX
  5
2193
  8
KONFUZOR
 10
3629.750577446172
 20
691.7425915959484
 30
5.0
  0
VERTEX
  5
2194
  8
KONFUZOR
 10
3661.553227855071
 20
711.1233701411569
 30
5.0
  0
VERTEX
  5
2195
  8
KONFUZOR
 10
3693.056446925139
 20
731.1174661616399
 30
5.0
  0
VERTEX
  5
2196
  8
KONFUZOR
 10
3724.338532111388
 20
751.5444215160448
 30
5.0
  0
VERTEX
  5
2197
  8
KONFUZOR
 10
3755.480520928942
 20
772.2178821510796
 30
5.0
  0
VERTEX
  5
2198
  8
KONFUZOR
 10
3786.563450892928
 20
792.9514940134515
 30
5.0
  0
VERTEX
  5
2199
  8
KONFUZOR
 10
3817.668359518467
 20
813.5589030498678
 30
5.0
  0
VERTEX
  5
219A
  8
KONFUZOR
 10
3848.876284320685
 20
833.853755207036
 30
5.0
  0
VERTEX
  5
219B
  8
KONFUZOR
 10
3880.268262814704
 20
853.6496964316635
 30
5.0
  0
VERTEX
  5
219C
  8
KONFUZOR
 10
3911.925332515652
 20
872.7603726704577
 30
5.0
  0
VERTEX
  5
219D
  8
KONFUZOR
 10
3943.928530938651
 20
890.999429870126
 30
5.0
  0
VERTEX
  5
219E
  8
KONFUZOR
 10
3976.358895598825
 20
908.1805139773759
 30
5.0
  0
VERTEX
  5
219F
  8
KONFUZOR
 10
4009.297464011298
 20
924.1172709389148
 30
5.0
  0
VERTEX
  5
21A0
  8
KONFUZOR
 10
4042.825273691197
 20
938.6233467014499
 30
5.0
  0
VERTEX
  5
21A1
  8
KONFUZOR
 10
4077.022099760768
 20
951.5150768364298
 30
5.0
  0
VERTEX
  5
21A2
  8
KONFUZOR
 10
4111.898814436565
 20
962.7555998350764
 30
5.0
  0
VERTEX
  5
21A3
  8
KONFUZOR
 10
4147.363248441769
 20
972.5275919850362
 30
5.0
  0
VERTEX
  5
21A4
  8
KONFUZOR
 10
4183.314793841545
 20
981.0317087814194
 30
5.0
  0
VERTEX
  5
21A5
  8
KONFUZOR
 10
4219.652842701054
 20
988.4686057193356
 30
5.0
  0
VERTEX
  5
21A6
  8
KONFUZOR
 10
4256.27678708546
 20
995.0389382938944
 30
5.0
  0
VERTEX
  5
21A7
  8
KONFUZOR
 10
4293.086019059925
 20
1000.943362000206
 30
5.0
  0
VERTEX
  5
21A8
  8
KONFUZOR
 10
4329.979930689613
 20
1006.382532333379
 30
5.0
  0
VERTEX
  5
21A9
  8
KONFUZOR
 10
4366.858861366264
 20
1011.555520116897
 30
5.0
  0
VERTEX
  5
21AA
  8
KONFUZOR
 10
4403.666773929628
 20
1016.588423619824
 30
5.0
  0
VERTEX
  5
21AB
  8
KONFUZOR
 10
4440.408578399334
 20
1021.505389715735
 30
5.0
  0
VERTEX
  5
21AC
  8
KONFUZOR
 10
4477.09371878876
 20
1026.322980891347
 30
5.0
  0
VERTEX
  5
21AD
  8
KONFUZOR
 10
4513.731639111286
 20
1031.057759633377
 30
5.0
  0
VERTEX
  5
21AE
  8
KONFUZOR
 10
4550.331783380294
 20
1035.72628842854
 30
5.0
  0
VERTEX
  5
21AF
  8
KONFUZOR
 10
4586.903595609161
 20
1040.345129763554
 30
5.0
  0
VERTEX
  5
21B0
  8
KONFUZOR
 10
4623.45651981127
 20
1044.930846125135
 30
5.0
  0
VERTEX
  5
21B1
  8
KONFUZOR
 10
4660.0
 20
1049.5
 30
5.0
  0
SEQEND
  5
21B4
  8
KONFUZOR
  0
TEXT
  5
1BC6
  8
KONFUZOR
 10
2350.038846303974
 20
-273.1976740358939
 30
0.0
 40
40.0
  1
A konfuzor íves körvonalai nem szerkesztettek, így csak jelképesek
  0
TEXT
  5
1BC7
  8
KONFUZOR
 10
4653.011840264528
 20
-249.7016613197684
 30
0.0
 40
40.0
  1

  0
LINE
  5
1BC8
  8
FA_SZERKEZETI_ELEMEK
 10
8135.0
 20
1049.5
 30
5.0
 11
8135.0
 21
2605.0
 31
5.0
  0
LINE
  5
1BC9
  8
FA_SZERKEZETI_ELEMEK
 10
10175.0
 20
3090.0
 30
0.0
 11
9635.0
 21
3090.0
 31
0.0
  0
LINE
  5
1BCA
  8
FA_SZERKEZETI_ELEMEK
 10
9635.0
 20
3090.0
 30
0.0
 11
9635.0
 21
1050.0
 31
0.0
  0
LINE
  5
1BCB
  8
FA_SZERKEZETI_ELEMEK
 10
9635.0
 20
1050.0
 30
0.0
 11
10175.0
 21
1050.0
 31
0.0
  0
LINE
  5
1BCC
  8
FA_SZERKEZETI_ELEMEK
 10
9635.0
 20
1050.0
 30
0.0
 11
8135.0
 21
1049.5
 31
5.0
  0
LINE
  5
1BCD
  8
FA_SZERKEZETI_ELEMEK
 10
8135.0
 20
1050.0
 30
4.997677248288658
 11
8135.0
 21
3090.0
 31
0.0
  0
LINE
  5
1BCE
  8
FA_SZERKEZETI_ELEMEK
 10
8135.0
 20
3090.0
 30
0.0
 11
9635.0
 21
3090.0
 31
0.0
  0
LINE
  5
1BD3
  8
50MM-ES_TARTÓ_ZÁRTSZELVÉNY
 10
4635.0
 20
2699.0
 30
5.0
 11
4685.0
 21
2699.0
 31
5.0
  0
LINE
  5
1BD4
  8
50MM-ES_TARTÓ_ZÁRTSZELVÉNY
 10
4685.0
 20
2699.0
 30
5.0
 11
4685.0
 21
2649.0
 31
5.0
  0
LINE
  5
1BD5
  8
50MM-ES_TARTÓ_ZÁRTSZELVÉNY
 10
4685.0
 20
2649.0
 30
5.0
 11
4635.0
 21
2649.0
 31
5.0
  0
LINE
  5
1BD6
  8
50MM-ES_TARTÓ_ZÁRTSZELVÉNY
 10
4635.0
 20
2649.0
 30
5.0
 11
4635.0
 21
2699.0
 31
5.0
  0
LINE
  5
1BD7
  8
50MM-ES_TARTÓ_ZÁRTSZELVÉNY
 10
4635.0
 20
955.0
 30
5.0
 11
4685.0
 21
955.0
 31
5.0
  0
LINE
  5
1BD8
  8
50MM-ES_TARTÓ_ZÁRTSZELVÉNY
 10
4685.0
 20
955.0
 30
5.0
 11
4685.0
 21
1005.0
 31
5.0
  0
LINE
  5
1BD9
  8
50MM-ES_TARTÓ_ZÁRTSZELVÉNY
 10
4685.0
 20
1005.0
 30
5.0
 11
4635.0
 21
1005.0
 31
5.0
  0
LINE
  5
1BDA
  8
50MM-ES_TARTÓ_ZÁRTSZELVÉNY
 10
4635.0
 20
1005.0
 30
5.0
 11
4635.0
 21
955.0
 31
5.0
  0
LINE
  5
1BDB
  8
50MM-ES_TARTÓ_ZÁRTSZELVÉNY
 10
4635.0
 20
2649.0
 30
5.0
 11
4635.0
 21
-80.0
 31
0.0
  0
LINE
  5
1BDC
  8
50MM-ES_TARTÓ_ZÁRTSZELVÉNY
 10
4685.0
 20
2649.0
 30
5.0
 11
4685.0
 21
-80.0
 31
0.0
  0
LINE
  5
1BFC
  8
50MM-ES_TARTÓ_ZÁRTSZELVÉNY
 10
6520.0
 20
2699.0
 30
0.0
 11
6570.0
 21
2699.0
 31
0.0
  0
LINE
  5
1BFD
  8
50MM-ES_TARTÓ_ZÁRTSZELVÉNY
 10
6570.0
 20
2699.0
 30
0.0
 11
6570.0
 21
2649.0
 31
0.0
  0
LINE
  5
1BFE
  8
50MM-ES_TARTÓ_ZÁRTSZELVÉNY
 10
6570.0
 20
2649.0
 30
0.0
 11
6520.0
 21
2649.0
 31
0.0
  0
LINE
  5
1BFF
  8
50MM-ES_TARTÓ_ZÁRTSZELVÉNY
 10
6520.0
 20
2649.0
 30
0.0
 11
6520.0
 21
2699.0
 31
0.0
  0
LINE
  5
1C00
  8
50MM-ES_TARTÓ_ZÁRTSZELVÉNY
 10
6520.0
 20
2649.0
 30
0.0
 11
6520.0
 21
-80.0
 31
0.0
  0
LINE
  5
1C01
  8
50MM-ES_TARTÓ_ZÁRTSZELVÉNY
 10
6570.0
 20
2649.0
 30
0.0
 11
6570.0
 21
-80.0
 31
0.0
  0
LINE
  5
1C02
  8
50MM-ES_TARTÓ_ZÁRTSZELVÉNY
 10
8155.0
 20
3335.0
 30
0.0
 11
8205.0
 21
3335.0
 31
0.0
  0
LINE
  5
1C03
  8
50MM-ES_TARTÓ_ZÁRTSZELVÉNY
 10
8205.0
 20
3335.0
 30
0.0
 11
8205.0
 21
3285.0
 31
0.0
  0
LINE
  5
1C04
  8
50MM-ES_TARTÓ_ZÁRTSZELVÉNY
 10
8205.0
 20
3285.0
 30
0.0
 11
8155.0
 21
3285.0
 31
0.0
  0
LINE
  5
1C05
  8
50MM-ES_TARTÓ_ZÁRTSZELVÉNY
 10
8155.0
 20
3285.0
 30
0.0
 11
8155.0
 21
3335.0
 31
0.0
  0
LINE
  5
1C06
  8
50MM-ES_TARTÓ_ZÁRTSZELVÉNY
 10
8155.0
 20
3335.0
 30
0.0
 11
8155.0
 21
-80.0
 31
0.0
  0
LINE
  5
1C07
  8
50MM-ES_TARTÓ_ZÁRTSZELVÉNY
 10
8205.0
 20
3335.0
 30
0.0
 11
8205.0
 21
-80.0
 31
0.0
  0
LINE
  5
1C08
  8
50MM-ES_TARTÓ_ZÁRTSZELVÉNY
 10
6520.0
 20
1005.0
 30
0.0
 11
6520.0
 21
955.0
 31
0.0
  0
LINE
  5
1C09
  8
50MM-ES_TARTÓ_ZÁRTSZELVÉNY
 10
6570.0
 20
1005.0
 30
0.0
 11
6520.0
 21
1005.0
 31
0.0
  0
LINE
  5
1C0A
  8
50MM-ES_TARTÓ_ZÁRTSZELVÉNY
 10
6570.0
 20
955.0
 30
0.0
 11
6570.0
 21
1005.0
 31
0.0
  0
LINE
  5
1C0B
  8
50MM-ES_TARTÓ_ZÁRTSZELVÉNY
 10
6520.0
 20
955.0
 30
0.0
 11
6570.0
 21
955.0
 31
0.0
  0
LINE
  5
1C0C
  8
50MM-ES_TARTÓ_ZÁRTSZELVÉNY
 10
8155.0
 20
1005.009437489971
 30
0.0000178133068536
 11
8155.0
 21
955.0094374899708
 31
0.0000178133068536
  0
LINE
  5
1C0D
  8
50MM-ES_TARTÓ_ZÁRTSZELVÉNY
 10
8205.0
 20
1005.009437489971
 30
0.0000178133068536
 11
8155.0
 21
1005.009437489971
 31
0.0000178133068536
  0
LINE
  5
1C0E
  8
50MM-ES_TARTÓ_ZÁRTSZELVÉNY
 10
8205.0
 20
955.0094374899708
 30
0.0000178133068536
 11
8205.0
 21
1005.009437489971
 31
0.0000178133068536
  0
LINE
  5
1C0F
  8
50MM-ES_TARTÓ_ZÁRTSZELVÉNY
 10
8155.0
 20
955.0094374899708
 30
0.0000178133068536
 11
8205.0
 21
955.0094374899708
 31
0.0000178133068536
  0
LINE
  5
1C24
  8
50MM-ES_TARTÓ_ZÁRTSZELVÉNY
 10
9655.0
 20
3335.499767724829
 30
-4.997677248288658
 11
9705.0
 21
3335.499767724829
 31
-4.997677248288658
  0
LINE
  5
1C25
  8
50MM-ES_TARTÓ_ZÁRTSZELVÉNY
 10
9705.0
 20
3335.499767724829
 30
-4.997677248288658
 11
9705.0
 21
3285.499767724829
 31
-4.997677248288658
  0
LINE
  5
1C26
  8
50MM-ES_TARTÓ_ZÁRTSZELVÉNY
 10
9705.0
 20
3285.499767724829
 30
-4.997677248288658
 11
9655.0
 21
3285.499767724829
 31
-4.997677248288658
  0
LINE
  5
1C27
  8
50MM-ES_TARTÓ_ZÁRTSZELVÉNY
 10
9655.0
 20
3285.499767724829
 30
-4.997677248288658
 11
9655.0
 21
3335.499767724829
 31
-4.997677248288658
  0
LINE
  5
1C28
  8
50MM-ES_TARTÓ_ZÁRTSZELVÉNY
 10
9655.0
 20
3335.499767724829
 30
-4.997677248288658
 11
9655.0
 21
0.4997677248307527
 31
-9.997677248288658
  0
LINE
  5
1C29
  8
50MM-ES_TARTÓ_ZÁRTSZELVÉNY
 10
9705.0
 20
3335.499767724829
 30
-4.997677248288658
 11
9705.0
 21
0.4997677248307527
 31
-9.997677248288658
  0
LINE
  5
1C2A
  8
50MM-ES_TARTÓ_ZÁRTSZELVÉNY
 10
9655.0
 20
1005.5092052148
 30
-4.997659434981805
 11
9655.0
 21
955.5092052147996
 31
-4.997659434981805
  0
LINE
  5
1C2B
  8
50MM-ES_TARTÓ_ZÁRTSZELVÉNY
 10
9705.0
 20
1005.5092052148
 30
-4.997659434981805
 11
9655.0
 21
1005.5092052148
 31
-4.997659434981805
  0
LINE
  5
1C2C
  8
50MM-ES_TARTÓ_ZÁRTSZELVÉNY
 10
9705.0
 20
955.5092052147996
 30
-4.997659434981805
 11
9705.0
 21
1005.5092052148
 31
-4.997659434981805
  0
LINE
  5
1C2D
  8
50MM-ES_TARTÓ_ZÁRTSZELVÉNY
 10
9655.0
 20
955.5092052147996
 30
-4.997659434981805
 11
9705.0
 21
955.5092052147996
 31
-4.997659434981805
  0
LINE
  5
1C2E
  8
50MM-ES_TARTÓ_ZÁRTSZELVÉNY
 10
12235.0
 20
3335.0
 30
-4.997677248288658
 11
12285.0
 21
3335.0
 31
-4.997677248288658
  0
LINE
  5
1C2F
  8
50MM-ES_TARTÓ_ZÁRTSZELVÉNY
 10
12285.0
 20
3335.0
 30
-4.997677248288658
 11
12285.0
 21
3285.0
 31
-4.997677248288658
  0
LINE
  5
1C30
  8
50MM-ES_TARTÓ_ZÁRTSZELVÉNY
 10
12285.0
 20
3285.0
 30
-4.997677248288658
 11
12235.0
 21
3285.0
 31
-4.997677248288658
  0
LINE
  5
1C31
  8
50MM-ES_TARTÓ_ZÁRTSZELVÉNY
 10
12235.0
 20
3285.0
 30
-4.997677248288658
 11
12235.0
 21
3335.0
 31
-4.997677248288658
  0
LINE
  5
1C32
  8
50MM-ES_TARTÓ_ZÁRTSZELVÉNY
 10
12235.0
 20
3335.0
 30
-4.997677248288658
 11
12235.0
 21
0.000000000002109
 31
-9.997677248288658
  0
LINE
  5
1C33
  8
50MM-ES_TARTÓ_ZÁRTSZELVÉNY
 10
12285.0
 20
3335.0
 30
-4.997677248288658
 11
12285.0
 21
0.000000000002109
 31
-9.997677248288658
  0
LINE
  5
1C34
  8
50MM-ES_TARTÓ_ZÁRTSZELVÉNY
 10
12235.0
 20
1005.009437489971
 30
-4.997659434981805
 11
12235.0
 21
955.009437489971
 31
-4.997659434981805
  0
LINE
  5
1C35
  8
50MM-ES_TARTÓ_ZÁRTSZELVÉNY
 10
12285.0
 20
1005.009437489971
 30
-4.997659434981805
 11
12235.0
 21
1005.009437489971
 31
-4.997659434981805
  0
LINE
  5
1C36
  8
50MM-ES_TARTÓ_ZÁRTSZELVÉNY
 10
12285.0
 20
945.009437489971
 30
-4.997659434981805
 11
12285.0
 21
995.009437489971
 31
-4.997659434981805
  0
LINE
  5
1C37
  8
50MM-ES_TARTÓ_ZÁRTSZELVÉNY
 10
12235.0
 20
955.009437489971
 30
-4.997659434981805
 11
12285.0
 21
955.009437489971
 31
-4.997659434981805
  0
LINE
  5
1C38
  8
50MM-ES_TARTÓ_ZÁRTSZELVÉNY
 10
12285.0
 20
2694.007492752646
 30
-4.997666014776446
 11
12335.0
 21
2694.007492752646
 31
-4.997666014776446
  0
LINE
  5
1C39
  8
50MM-ES_TARTÓ_ZÁRTSZELVÉNY
 10
12335.0
 20
2694.007492752646
 30
-4.997666014776446
 11
12335.0
 21
2644.007492752646
 31
-4.997666014776446
  0
LINE
  5
1C3A
  8
50MM-ES_TARTÓ_ZÁRTSZELVÉNY
 10
12335.0
 20
2644.007492752646
 30
-4.997666014776446
 11
12285.0
 21
2644.007492752646
 31
-4.997666014776446
  0
LINE
  5
1C3B
  8
50MM-ES_TARTÓ_ZÁRTSZELVÉNY
 10
12285.0
 20
2644.007492752646
 30
-4.997666014776446
 11
12285.0
 21
2694.007492752646
 31
-4.997666014776446
  0
LINE
  5
1C3C
  8
50MM-ES_TARTÓ_ZÁRTSZELVÉNY
 10
12285.0
 20
2694.007492752646
 30
-4.997666014776446
 11
12285.0
 21
945.0074927526456
 31
-4.997666014776446
  0
LINE
  5
1C3D
  8
50MM-ES_TARTÓ_ZÁRTSZELVÉNY
 10
12335.0
 20
2694.007492752646
 30
-4.997666014776446
 11
12335.0
 21
945.0074927526456
 31
-4.997666014776446
  0
LINE
  5
1C3E
  8
50MM-ES_TARTÓ_ZÁRTSZELVÉNY
 10
12285.0
 20
995.0074927526456
 30
-4.997666014776446
 11
12285.0
 21
945.0074927526456
 31
-4.997666014776446
  0
LINE
  5
1C3F
  8
50MM-ES_TARTÓ_ZÁRTSZELVÉNY
 10
12335.0
 20
995.0074927526456
 30
-4.997666014776446
 11
12285.0
 21
995.0074927526456
 31
-4.997666014776446
  0
LINE
  5
1C40
  8
50MM-ES_TARTÓ_ZÁRTSZELVÉNY
 10
12335.0
 20
945.0074927526456
 30
-4.997666014776446
 11
12335.0
 21
995.0074927526456
 31
-4.997666014776446
  0
LINE
  5
1C41
  8
50MM-ES_TARTÓ_ZÁRTSZELVÉNY
 10
12285.0
 20
945.0074927526456
 30
-4.997666014776446
 11
12335.0
 21
945.0074927526456
 31
-4.997666014776446
  0
LINE
  5
1C43
  8
50MM-ES_TARTÓ_ZÁRTSZELVÉNY
 10
12285.0
 20
945.0074927526456
 30
-4.997666014776446
 11
12815.0
 21
34.36390882736896
 31
-0.1817333096282328
  0
LINE
  5
1C44
  8
50MM-ES_TARTÓ_ZÁRTSZELVÉNY
 10
12335.0
 20
945.0074927526456
 30
-4.997666014776446
 11
12838.43952260967
 21
80.00000000000045
 31
-0.4230794827007531
  0
LINE
  5
1C45
  8
50MM-ES_TARTÓ_ZÁRTSZELVÉNY
 10
2730.0
 20
362.0
 30
5.0
 11
2729.999999999996
 21
-80.0
 31
0.0
  0
LINE
  5
1C47
  8
50MM-ES_TARTÓ_ZÁRTSZELVÉNY
 10
2780.000000000004
 20
361.9999999999979
 30
5.0
 11
2779.999999999999
 21
-80.0
 31
0.0
  0
LINE
  5
1C48
  8
50MM-ES_TARTÓ_ZÁRTSZELVÉNY
 10
2730.0
 20
362.0
 30
5.0
 11
2780.000000000004
 21
361.9999999999979
 31
5.0
  0
LINE
  5
1C4A
  8
50MM-ES_TARTÓ_ZÁRTSZELVÉNY
 10
2729.999999999996
 20
0.000000000002115
 30
0.0
 11
2729.999999999996
 21
0.000000000002115
 31
0.0
  0
LINE
  5
1C4B
  8
DIFFUZOR
 10
16350.0
 20
3152.5
 30
0.0
 11
16350.0
 21
502.5
 31
0.0
  0
LINE
  5
1C4C
  8
MOTOR_SZÍJHAJTÁS
 10
15450.0
 20
1240.0
 30
0.0
 11
15450.0
 21
130.0
 31
0.0
  0
LINE
  5
1C53
  8
DIFFUZOR
 10
14490.0
 20
130.0
 30
0.0
 11
14490.0
 21
130.0
 31
0.0
  0
LINE
  5
1C54
  8
MOTOR_SZÍJHAJTÁS
 10
14490.0
 20
130.0
 30
0.0
 11
14490.0
 21
1600.0
 31
0.0
  0
LINE
  5
1C55
  8
MOTOR_SZÍJHAJTÁS
 10
14490.0
 20
1600.0
 30
0.0
 11
14140.0
 21
1600.0
 31
5.0
  0
LINE
  5
1C56
  8
MOTOR_SZÍJHAJTÁS
 10
14140.0
 20
1600.0
 30
5.0
 11
14140.0
 21
425.0
 31
1.312487182742354
  0
LINE
  5
1C57
  8
MOTOR_SZÍJHAJTÁS
 10
15450.0
 20
1240.0
 30
0.0
 11
14490.0
 21
1240.0
 31
0.0
  0
LINE
  5
1C58
  8
MOTOR_SZÍJHAJTÁS
 10
14490.0
 20
1240.0
 30
0.0
 11
14490.0
 21
130.0
 31
0.0
  0
LINE
  5
1C5A
  8
MOTOR_SZÍJHAJTÁS
 10
16350.0
 20
130.0
 30
0.0
 11
16350.0
 21
425.0
 31
0.0
  0
LINE
  5
1C5B
  8
MOTOR_SZÍJHAJTÁS
 10
16350.0
 20
425.0
 30
0.0
 11
14140.0
 21
425.0
 31
1.312487182742354
  0
LINE
  5
1C5D
  8
MOTOR_SZÍJHAJTÁS
 10
14490.0
 20
130.0
 30
0.0
 11
16350.0
 21
130.0
 31
0.0
  0
LINE
  5
1C61
  8
TALAJSZINT
 10
12815.0
 20
0.0
 30
0.0
 11
12815.0
 21
80.0
 31
0.0
  0
LINE
  5
1C62
  8
TALAJSZINT
 10
12815.0
 20
80.0
 30
0.0
 11
16350.0
 21
80.0
 31
0.0
  0
LINE
  5
1C63
  8
TALAJSZINT
 10
16350.0
 20
80.0
 30
0.0
 11
16350.0
 21
0.0
 31
0.0
  0
LINE
  5
1C64
  8
TALAJSZINT
 10
12815.0
 20
0.0
 30
0.0
 11
9330.0
 21
0.0
 31
0.0
  0
LINE
  5
1C65
  8
TALAJSZINT
 10
9330.0
 20
0.0
 30
0.0
 11
9330.0
 21
-80.0
 31
0.0
  0
LINE
  5
1C66
  8
TALAJSZINT
 10
9330.0
 20
-80.0
 30
0.0
 11
0.0
 21
-80.0
 31
0.0
  0
TEXT
  5
1C67
  8
TALAJSZINT
  6
CONTINUOUS
 10
-4921.64564389309
 20
-25.27199550664628
 30
0.0
 40
88.0
  1
A 0 talajszint a csatorna mérõtere alatt lévõ beton szintje
  0
TEXT
  5
1C68
  8
TALAJSZINT
  6
CONTINUOUS
 10
-4918.935788861576
 20
-147.9423807040478
 30
0.0
 40
88.0
  1
Valóságos talajszint
  0
LINE
  5
1C6E
  8
MOTOR_SZÍJHAJTÁS
 10
14489.5
 20
80.0
 30
0.0
 11
14640.5
 21
80.0
 31
0.0
  0
ARC
  5
1C6F
  8
MOTOR_SZÍJHAJTÁS
 10
14565.0
 20
48.0
 30
0.0
 40
82.00152437607485
 50
22.96922512754321
 51
157.0307748724568
  0
ARC
  5
1C71
  8
MOTOR_SZÍJHAJTÁS
 10
16274.0
 20
48.0
 30
0.0
 40
82.00152437607485
 50
22.96922512754321
 51
157.0307748724568
  0
LINE
  5
1C72
  8
MOTOR_SZÍJHAJTÁS
 10
16198.5
 20
80.0
 30
0.0
 11
16349.5
 21
80.0
 31
0.0
  0
LINE
  5
1C7A
  8
MÉR_TÉR_BELSEJE
 10
4660.0
 20
1140.0
 30
0.0
 11
12190.0
 21
1140.0
 31
0.0
  0
LINE
  5
1C7B
  8
MÉR_TÉR_BELSEJE
 10
12190.0
 20
1140.0
 30
0.0
 11
12190.0
 21
2540.0
 31
0.0
  0
LINE
  5
1C7C
  8
MÉR_TÉR_BELSEJE
 10
12190.0
 20
2540.0
 30
0.0
 11
11780.0
 21
2540.0
 31
0.0
  0
LINE
  5
1C7D
  8
MÉR_TÉR_BELSEJE
 10
11780.0
 20
2540.0
 30
0.0
 11
11535.0
 21
2590.0
 31
0.0
  0
LINE
  5
1C7E
  8
MÉR_TÉR_BELSEJE
 10
4660.0
 20
1140.0
 30
0.0
 11
4660.0
 21
2540.0
 31
0.0
  0
LINE
  5
1C7F
  8
MÉR_TÉR_BELSEJE
 10
4660.0
 20
2540.0
 30
0.0
 11
8135.0
 21
2540.0
 31
5.0
  0
LINE
  5
1C80
  8
MÉR_TÉR_BELSEJE
 10
8135.0
 20
2540.0
 30
5.0
 11
11535.0
 21
2590.0
 31
0.0
  0
LINE
  5
1C8A
  8
VENTILLÁTOR_ÉS_ALKATRÉSZEI
 10
12435.0
 20
1917.0
 30
5.0
 11
12435.0
 21
1737.0
 31
5.0
  0
LINE
  5
1C8B
  8
VENTILLÁTOR_ÉS_ALKATRÉSZEI
 10
13835.0
 20
2367.5
 30
0.0
 11
13835.0
 21
1287.5
 31
0.0
  0
LINE
  5
1C8D
  8
VENTILLÁTOR_ÉS_ALKATRÉSZEI
 10
12435.0
 20
1737.0
 30
5.0
 11
13835.0
 21
1287.5
 31
0.0
  0
LINE
  5
1C8E
  8
VENTILLÁTOR_ÉS_ALKATRÉSZEI
 10
12435.0
 20
1917.0
 30
5.0
 11
13835.0
 21
2367.5
 31
0.0
  0
LINE
  5
1C8F
  8
VENTILLÁTOR_ÉS_ALKATRÉSZEI
 10
13850.49462786924
 20
545.8186419068202
 30
0.0
 11
13852.37709212379
 21
3109.787622316338
 31
0.0
  0
LINE
  5
1C90
  8
VENTILLÁTOR_ÉS_ALKATRÉSZEI
 10
13859.23124166639
 20
543.0049383456761
 30
0.0
 11
13859.31791175342
 21
3112.022974520588
 31
0.0
  0
INSERT
  5
1C93
  8
VENTILLÁTOR_ÉS_ALKATRÉSZEI
  2
*X12
 10
0.0
 20
0.0
 30
0.0
  0
INSERT
  5
1C96
  8
VENTILLÁTOR_ÉS_ALKATRÉSZEI
  2
*X13
 10
0.0
 20
0.0
 30
0.0
  0
INSERT
  5
1C97
  8
VENTILLÁTOR_ÉS_ALKATRÉSZEI
  2
*X14
 10
0.0
 20
0.0
 30
0.0
  0
LINE
  5
1C98
  8
VENTILLÁTOR_ÉS_ALKATRÉSZEI
 10
16350.0
 20
502.5
 30
0.0
 11
16350.0
 21
3152.5
 31
0.0
  0
LINE
  5
1C9C
  8
VENTILLÁTOR_ÉS_ALKATRÉSZEI
 10
15960.0
 20
502.5
 30
0.0
 11
15960.0
 21
3152.5
 31
0.0
  0
LINE
  5
1C9D
  8
VENTILLÁTOR_ÉS_ALKATRÉSZEI
 10
15740.0
 20
502.5
 30
0.0
 11
15740.0
 21
3152.5
 31
0.0
  0
LINE
  5
1C9E
  8
VENTILLÁTOR_ÉS_ALKATRÉSZEI
 10
15730.0
 20
502.5
 30
0.0
 11
15730.0
 21
3152.5
 31
0.0
  0
LINE
  5
1C9F
  8
VENTILLÁTOR_ÉS_ALKATRÉSZEI
 10
15250.0
 20
502.5
 30
0.0
 11
15250.0
 21
3152.5
 31
0.0
  0
LINE
  5
1CA0
  8
VENTILLÁTOR_ÉS_ALKATRÉSZEI
 10
14860.0
 20
502.5
 30
0.0
 11
14860.0
 21
3152.5
 31
0.0
  0
LINE
  5
1CA1
  8
VENTILLÁTOR_ÉS_ALKATRÉSZEI
 10
15730.0
 20
502.5
 30
0.0
 11
15250.0
 21
502.5
 31
0.0
  0
LINE
  5
1CA2
  8
VENTILLÁTOR_ÉS_ALKATRÉSZEI
 10
15250.0
 20
502.5
 30
0.0
 11
14860.0
 21
502.5
 31
0.0
  0
LINE
  5
1CA3
  8
VENTILLÁTOR_ÉS_ALKATRÉSZEI
 10
15740.0
 20
502.5
 30
0.0
 11
15960.0
 21
502.5
 31
0.0
  0
LINE
  5
1CA4
  8
VENTILLÁTOR_ÉS_ALKATRÉSZEI
 10
15960.0
 20
502.5
 30
0.0
 11
16350.0
 21
502.5
 31
0.0
  0
LINE
  5
1CA5
  8
VENTILLÁTOR_ÉS_ALKATRÉSZEI
 10
16350.0
 20
3152.5
 30
0.0
 11
15960.0
 21
3152.5
 31
0.0
  0
LINE
  5
1CA6
  8
VENTILLÁTOR_ÉS_ALKATRÉSZEI
 10
15960.0
 20
3152.5
 30
0.0
 11
15740.0
 21
3152.5
 31
0.0
  0
LINE
  5
1CA7
  8
VENTILLÁTOR_ÉS_ALKATRÉSZEI
 10
15730.0
 20
3152.5
 30
0.0
 11
15250.0
 21
3152.5
 31
0.0
  0
LINE
  5
1CA8
  8
VENTILLÁTOR_ÉS_ALKATRÉSZEI
 10
15250.0
 20
3152.5
 30
0.0
 11
14860.0
 21
3152.5
 31
0.0
  0
TEXT
  5
1CA9
  8
VENTILLÁTOR_ÉS_ALKATRÉSZEI
  6
CONTINUOUS
 10
15796.82125315155
 20
3198.452728419923
 30
0.0
 40
40.0
  1
állórész
  0
TEXT
  5
1CAA
  8
VENTILLÁTOR_ÉS_ALKATRÉSZEI
  6
CONTINUOUS
 10
15159.03714200755
 20
3199.6029348477
 30
0.0
 40
40.0
  1
forgórész
  0
INSERT
  5
1CB1
  8
VENTILLÁTOR_ÉS_ALKATRÉSZEI
  2
*X15
 10
0.0
 20
0.0
 30
0.0
  0
INSERT
  5
1CB8
  8
VENTILLÁTOR_ÉS_ALKATRÉSZEI
  2
*X16
 10
0.0
 20
0.0
 30
0.0
  0
LINE
  5
1CC4
  8
DIFFUZOR
 10
12285.0
 20
1827.5
 30
0.0
 11
13985.0
 21
1827.5
 31
0.0
  0
LINE
  5
1CC6
  8
DIFFUZOR
 10
14520.0
 20
3152.5
 30
0.0
 11
14520.0
 21
502.5
 31
0.0
  0
LINE
  5
1CC7
  8
DIFFUZOR
 10
13985.0
 20
1827.5
 30
0.0
 11
14520.0
 21
1827.5
 31
0.0
  0
LINE
  5
1CC8
  8
DIFFUZOR
 10
14520.0
 20
1827.5
 30
0.0
 11
16350.0
 21
1827.5
 31
0.0
  0
LINE
  5
1CC9
  8
KONFUZOR
 10
2730.0
 20
1827.5
 30
5.0
 11
4660.0
 21
1827.0
 31
5.0
  0
LINE
  5
1CD3
  8
FA_SZERKEZETI_ELEMEK_RÖGZÍ
 10
12165.0
 20
3050.0
 30
0.0
 11
12165.0
 21
2290.0
 31
0.0
  0
LINE
  5
1CD4
  8
FA_SZERKEZETI_ELEMEK_RÖGZÍ
 10
11180.0
 20
3050.0
 30
0.0
 11
11180.0
 21
2290.0
 31
0.0
  0
LINE
  5
1CD5
  8
FA_SZERKEZETI_ELEMEK_RÖGZÍ
 10
11135.0
 20
3050.0
 30
0.0
 11
11135.0
 21
2290.0
 31
0.0
  0
LINE
  5
1CD6
  8
FA_SZERKEZETI_ELEMEK_RÖGZÍ
 10
10250.0
 20
3050.0
 30
0.0
 11
10250.0
 21
2290.0
 31
0.0
  0
LINE
  5
1CD7
  8
FA_SZERKEZETI_ELEMEK_RÖGZÍ
 10
12165.0
 20
3050.0
 30
0.0
 11
11180.0
 21
3050.0
 31
0.0
  0
LINE
  5
1CD8
  8
FA_SZERKEZETI_ELEMEK_RÖGZÍ
 10
11135.0
 20
3050.0
 30
0.0
 11
10250.0
 21
3050.0
 31
0.0
  0
LINE
  5
1CD9
  8
FA_SZERKEZETI_ELEMEK_RÖGZÍ
 10
12165.0
 20
2290.0
 30
0.0
 11
11180.0
 21
2290.0
 31
0.0
  0
LINE
  5
1CDA
  8
FA_SZERKEZETI_ELEMEK_RÖGZÍ
 10
11135.0
 20
2290.0
 30
0.0
 11
10250.0
 21
2290.0
 31
0.0
  0
LINE
  5
1CDB
  8
FA_SZERKEZETI_ELEMEK_RÖGZÍ
 10
8100.0
 20
2565.0
 30
0.0
 11
8100.0
 21
1850.0
 31
0.0
  0
LINE
  5
1CDC
  8
FA_SZERKEZETI_ELEMEK_RÖGZÍ
 10
8100.0
 20
1810.0
 30
0.0
 11
8100.0
 21
1095.0
 31
0.0
  0
LINE
  5
1CDD
  8
FA_SZERKEZETI_ELEMEK_RÖGZÍ
 10
7340.0
 20
2565.0
 30
0.0
 11
7340.0
 21
1850.0
 31
0.0
  0
LINE
  5
1CDE
  8
FA_SZERKEZETI_ELEMEK_RÖGZÍ
 10
7340.0
 20
1810.0
 30
0.0
 11
7340.0
 21
1095.0
 31
0.0
  0
LINE
  5
1CDF
  8
FA_SZERKEZETI_ELEMEK_RÖGZÍ
 10
7295.0
 20
2565.0
 30
0.0
 11
7295.0
 21
1850.0
 31
0.0
  0
LINE
  5
1CE0
  8
FA_SZERKEZETI_ELEMEK_RÖGZÍ
 10
7295.0
 20
1810.0
 30
0.0
 11
7295.0
 21
1095.0
 31
0.0
  0
LINE
  5
1CE1
  8
FA_SZERKEZETI_ELEMEK_RÖGZÍ
 10
6540.0
 20
2565.0
 30
0.0
 11
6540.0
 21
1850.0
 31
0.0
  0
LINE
  5
1CE2
  8
FA_SZERKEZETI_ELEMEK_RÖGZÍ
 10
6540.0
 20
1810.0
 30
0.0
 11
6540.0
 21
1095.0
 31
0.0
  0
LINE
  5
1CE3
  8
FA_SZERKEZETI_ELEMEK_RÖGZÍ
 10
8105.657031680286
 20
2565.744570744176
 30
0.0
 11
7340.0
 21
2565.0
 31
0.0
  0
LINE
  5
1CE4
  8
FA_SZERKEZETI_ELEMEK_RÖGZÍ
 10
7295.0
 20
2565.0
 30
0.0
 11
6540.0
 21
2565.0
 31
0.0
  0
LINE
  5
1CE5
  8
FA_SZERKEZETI_ELEMEK_RÖGZÍ
 10
7295.0
 20
1850.0
 30
0.0
 11
6540.0
 21
1850.0
 31
0.0
  0
LINE
  5
1CE6
  8
FA_SZERKEZETI_ELEMEK_RÖGZÍ
 10
8105.657031680286
 20
1850.744570744176
 30
0.0
 11
7340.0
 21
1850.0
 31
0.0
  0
LINE
  5
1CE7
  8
FA_SZERKEZETI_ELEMEK_RÖGZÍ
 10
7295.0
 20
1810.0
 30
0.0
 11
6540.0
 21
1810.0
 31
0.0
  0
LINE
  5
1CE8
  8
FA_SZERKEZETI_ELEMEK_RÖGZÍ
 10
8105.657031680286
 20
1810.744570744176
 30
0.0
 11
7340.0
 21
1810.0
 31
0.0
  0
LINE
  5
1CE9
  8
FA_SZERKEZETI_ELEMEK_RÖGZÍ
 10
7295.0
 20
1095.0
 30
0.0
 11
6540.0
 21
1095.0
 31
0.0
  0
LINE
  5
1CEA
  8
FA_SZERKEZETI_ELEMEK_RÖGZÍ
 10
8105.657031680286
 20
1095.744570744176
 30
0.0
 11
7340.0
 21
1095.0
 31
0.0
  0
LINE
  5
1CED
  8
FA_SZERKEZETI_ELEMEK_RÖGZÍ
 10
8180.0
 20
3045.0
 30
0.0
 11
8180.0
 21
2240.0
 31
0.0
  0
LINE
  5
1CEF
  8
FA_SZERKEZETI_ELEMEK_RÖGZÍ
 10
8865.0
 20
3045.0
 30
0.0
 11
8865.0
 21
2240.0
 31
0.0
  0
LINE
  5
1CF0
  8
FA_SZERKEZETI_ELEMEK_RÖGZÍ
 10
8905.0
 20
3045.0
 30
0.0
 11
8905.0
 21
2240.0
 31
0.0
  0
LINE
  5
1CF1
  8
FA_SZERKEZETI_ELEMEK_RÖGZÍ
 10
9590.0
 20
3045.0
 30
0.0
 11
9590.0
 21
2240.0
 31
0.0
  0
LINE
  5
1CF2
  8
FA_SZERKEZETI_ELEMEK_RÖGZÍ
 10
9680.0
 20
3045.0
 30
0.0
 11
9680.0
 21
2240.0
 31
0.0
  0
LINE
  5
1CF3
  8
FA_SZERKEZETI_ELEMEK_RÖGZÍ
 10
10135.0
 20
3045.0
 30
0.0
 11
10135.0
 21
2240.0
 31
0.0
  0
LINE
  5
1CF4
  8
FA_SZERKEZETI_ELEMEK_RÖGZÍ
 10
8180.0
 20
3045.0
 30
0.0
 11
8865.0
 21
3045.0
 31
0.0
  0
LINE
  5
1CF5
  8
FA_SZERKEZETI_ELEMEK_RÖGZÍ
 10
8905.0
 20
3045.0
 30
0.0
 11
9590.0
 21
3045.0
 31
0.0
  0
LINE
  5
1CF6
  8
FA_SZERKEZETI_ELEMEK_RÖGZÍ
 10
9680.0
 20
3045.0
 30
0.0
 11
10135.0
 21
3045.0
 31
0.0
  0
LINE
  5
1CF7
  8
FA_SZERKEZETI_ELEMEK_RÖGZÍ
 10
9680.0
 20
2240.0
 30
0.0
 11
10135.0
 21
2240.0
 31
0.0
  0
LINE
  5
1CF8
  8
FA_SZERKEZETI_ELEMEK_RÖGZÍ
 10
8905.0
 20
2240.0
 30
0.0
 11
9590.0
 21
2240.0
 31
0.0
  0
LINE
  5
1CF9
  8
FA_SZERKEZETI_ELEMEK_RÖGZÍ
 10
8180.0
 20
2240.0
 30
0.0
 11
8865.0
 21
2240.0
 31
0.0
  0
LINE
  5
1D09
  8
FA_SZERKEZETI_ELEMEK_RÖGZÍ
 10
8180.0
 20
2185.0
 30
0.0
 11
8865.0
 21
2185.0
 31
0.0
  0
LINE
  5
1D0A
  8
FA_SZERKEZETI_ELEMEK_RÖGZÍ
 10
8905.0
 20
2185.0
 30
0.0
 11
9590.0
 21
2185.0
 31
0.0
  0
LINE
  5
1D0B
  8
FA_SZERKEZETI_ELEMEK_RÖGZÍ
 10
9680.0
 20
2185.0
 30
0.0
 11
10135.0
 21
2185.0
 31
0.0
  0
LINE
  5
1D0C
  8
FA_SZERKEZETI_ELEMEK_RÖGZÍ
 10
8180.0
 20
1250.0
 30
0.0
 11
8865.0
 21
1250.0
 31
0.0
  0
LINE
  5
1D0D
  8
FA_SZERKEZETI_ELEMEK_RÖGZÍ
 10
8905.0
 20
1250.0
 30
0.0
 11
9590.0
 21
1250.0
 31
0.0
  0
LINE
  5
1D0E
  8
FA_SZERKEZETI_ELEMEK_RÖGZÍ
 10
9680.0
 20
1250.0
 30
0.0
 11
10135.0
 21
1250.0
 31
0.0
  0
LINE
  5
1D0F
  8
FA_SZERKEZETI_ELEMEK_RÖGZÍ
 10
8180.0
 20
1195.0
 30
0.0
 11
8865.0
 21
1195.0
 31
0.0
  0
LINE
  5
1D10
  8
FA_SZERKEZETI_ELEMEK_RÖGZÍ
 10
8905.0
 20
1195.0
 30
0.0
 11
9590.0
 21
1195.0
 31
0.0
  0
LINE
  5
1D11
  8
FA_SZERKEZETI_ELEMEK_RÖGZÍ
 10
9680.0
 20
1195.0
 30
0.0
 11
10135.0
 21
1195.0
 31
0.0
  0
LINE
  5
1D12
  8
FA_SZERKEZETI_ELEMEK_RÖGZÍ
 10
8180.0
 20
1095.0
 30
0.0
 11
8865.0
 21
1095.0
 31
0.0
  0
LINE
  5
1D13
  8
FA_SZERKEZETI_ELEMEK_RÖGZÍ
 10
8905.0
 20
1095.0
 30
0.0
 11
9590.0
 21
1095.0
 31
0.0
  0
LINE
  5
1D14
  8
FA_SZERKEZETI_ELEMEK_RÖGZÍ
 10
9680.0
 20
1095.0
 30
0.0
 11
10135.0
 21
1095.0
 31
0.0
  0
LINE
  5
1D15
  8
FA_SZERKEZETI_ELEMEK_RÖGZÍ
 10
8180.0
 20
2185.0
 30
0.0
 11
8180.0
 21
1250.0
 31
0.0
  0
LINE
  5
1D16
  8
FA_SZERKEZETI_ELEMEK_RÖGZÍ
 10
8865.0
 20
2185.0
 30
0.0
 11
8865.0
 21
1250.0
 31
0.0
  0
LINE
  5
1D17
  8
FA_SZERKEZETI_ELEMEK_RÖGZÍ
 10
8905.0
 20
2185.0
 30
0.0
 11
8905.0
 21
1250.0
 31
0.0
  0
LINE
  5
1D18
  8
FA_SZERKEZETI_ELEMEK_RÖGZÍ
 10
9590.0
 20
2185.0
 30
0.0
 11
9590.0
 21
1250.0
 31
0.0
  0
LINE
  5
1D19
  8
FA_SZERKEZETI_ELEMEK_RÖGZÍ
 10
9680.0
 20
2185.0
 30
0.0
 11
9680.0
 21
1250.0
 31
0.0
  0
LINE
  5
1D1A
  8
FA_SZERKEZETI_ELEMEK_RÖGZÍ
 10
10135.0
 20
2185.0
 30
0.0
 11
10135.0
 21
1250.0
 31
0.0
  0
LINE
  5
1D1B
  8
FA_SZERKEZETI_ELEMEK_RÖGZÍ
 10
8180.0
 20
1195.0
 30
0.0
 11
8180.0
 21
1095.0
 31
0.0
  0
LINE
  5
1D1C
  8
FA_SZERKEZETI_ELEMEK_RÖGZÍ
 10
8865.0
 20
1195.0
 30
0.0
 11
8865.0
 21
1095.0
 31
0.0
  0
LINE
  5
1D1D
  8
FA_SZERKEZETI_ELEMEK_RÖGZÍ
 10
8905.0
 20
1195.0
 30
0.0
 11
8905.0
 21
1095.0
 31
0.0
  0
LINE
  5
1D1E
  8
FA_SZERKEZETI_ELEMEK_RÖGZÍ
 10
9590.0
 20
1195.0
 30
0.0
 11
9590.0
 21
1095.0
 31
0.0
  0
LINE
  5
1D1F
  8
FA_SZERKEZETI_ELEMEK_RÖGZÍ
 10
9680.0
 20
1195.0
 30
0.0
 11
9680.0
 21
1095.0
 31
0.0
  0
LINE
  5
1D20
  8
FA_SZERKEZETI_ELEMEK_RÖGZÍ
 10
10135.0
 20
1195.0
 30
0.0
 11
10135.0
 21
1095.0
 31
0.0
  0
LINE
  5
1D29
  8
FELÜLNÉZET
 10
2730.0
 20
5235.0
 30
5.0
 11
2730.0
 21
8765.0
 31
5.0
  0
LINE
  5
1D2A
  8
FELÜLNÉZET
 10
4660.0
 20
5817.0
 30
5.0
 11
4660.0
 21
8183.0
 31
5.0
  0
LINE
  5
1D2B
  8
FELÜLNÉZET
 10
6500.0
 20
5817.0
 30
5.0
 11
6500.0
 21
8183.0
 31
5.0
  0
LINE
  5
1D2C
  8
FELÜLNÉZET
 10
8135.518494181343
 20
5817.0
 30
4.998271686062189
 11
8135.0
 21
8183.0
 31
5.0
  0
LINE
  5
1D2D
  8
FELÜLNÉZET
 10
9635.0
 20
5817.0
 30
0.0
 11
9635.0
 21
8183.0
 31
0.0
  0
LINE
  5
1D2E
  8
FELÜLNÉZET
 10
10175.0
 20
5817.0
 30
0.0
 11
10175.0
 21
8183.0
 31
0.0
  0
LINE
  5
1D2F
  8
FELÜLNÉZET
 10
12285.0
 20
5817.0
 30
0.0
 11
12285.0
 21
8183.0
 31
0.0
  0
LINE
  5
1D30
  8
FELÜLNÉZET
 10
13985.0
 20
5865.0
 30
0.0
 11
13985.0
 21
8135.0
 31
0.0
  0
LINE
  5
1D31
  8
FELÜLNÉZET
 10
16350.0
 20
5865.0
 30
0.0
 11
16350.0
 21
8135.0
 31
0.0
  0
LINE
  5
1D32
  8
FELÜLNÉZET
 10
20000.0
 20
7000.0
 30
0.0
 11
-776.9685241777552
 21
7000.0
 31
0.0
  0
LINE
  5
1D33
  8
FELÜLNÉZET
 10
16350.0
 20
8135.0
 30
0.0
 11
13985.0
 21
8135.0
 31
0.0
  0
LINE
  5
1D34
  8
FELÜLNÉZET
 10
13985.0
 20
8135.0
 30
0.0
 11
12285.0
 21
8183.0
 31
0.0
  0
LINE
  5
1D35
  8
FELÜLNÉZET
 10
12285.0
 20
8183.0
 30
0.0
 11
10175.0
 21
8183.0
 31
0.0
  0
LINE
  5
1D36
  8
FELÜLNÉZET
 10
10175.0
 20
8183.0
 30
0.0
 11
9635.0
 21
8183.0
 31
0.0
  0
LINE
  5
1D37
  8
FELÜLNÉZET
 10
9635.0
 20
8183.0
 30
0.0
 11
8135.0
 21
8183.0
 31
5.0
  0
LINE
  5
1D38
  8
FELÜLNÉZET
 10
8135.0
 20
8183.0
 30
5.0
 11
6500.0
 21
8183.0
 31
5.0
  0
LINE
  5
1D39
  8
FELÜLNÉZET
 10
6500.0
 20
8183.0
 30
5.0
 11
4660.0
 21
8183.0
 31
5.0
  0
LINE
  5
1D3C
  8
FELÜLNÉZET
 10
4660.0
 20
5817.0
 30
5.0
 11
6500.0
 21
5817.0
 31
5.0
  0
LINE
  5
1D3D
  8
FELÜLNÉZET
 10
6500.0
 20
5817.0
 30
5.0
 11
8135.518494181343
 21
5817.0
 31
4.998271686062189
  0
LINE
  5
1D3E
  8
FELÜLNÉZET
 10
8135.518494181343
 20
5817.0
 30
4.998271686062189
 11
9635.0
 21
5817.0
 31
0.0
  0
LINE
  5
1D3F
  8
FELÜLNÉZET
 10
9635.0
 20
5817.0
 30
0.0
 11
10175.0
 21
5817.0
 31
0.0
  0
LINE
  5
1D40
  8
FELÜLNÉZET
 10
10175.0
 20
5817.0
 30
0.0
 11
12285.0
 21
5817.0
 31
0.0
  0
LINE
  5
1D41
  8
FELÜLNÉZET
 10
12285.0
 20
5817.0
 30
0.0
 11
13985.0
 21
5865.0
 31
0.0
  0
LINE
  5
1D42
  8
FELÜLNÉZET
 10
13985.0
 20
5865.0
 30
0.0
 11
16350.0
 21
5865.0
 31
0.0
  0
POLYLINE
  5
1D44
  8
FELÜLNÉZET
 10
0.0
 20
0.0
 30
0.0
 66
     1
 70
     8
  0
VERTEX
  5
1F20
  8
FELÜLNÉZET
 10
2730.0
 20
5235.0
 30
5.0
 70
    32
  0
VERTEX
  5
1F21
  8
FELÜLNÉZET
 10
2765.429744456671
 20
5243.390967814869
 30
4.94760015914726
 70
    32
  0
VERTEX
  5
1F22
  8
FELÜLNÉZET
 10
2800.840904087862
 20
5251.830059743588
 30
4.896536885453305
 70
    32
  0
VERTEX
  5
1F23
  8
FELÜLNÉZET
 10
2836.214894068097
 20
5260.365399900008
 30
4.848146746076913
 70
    32
  0
VERTEX
  5
1F24
  8
FELÜLNÉZET
 10
2871.533129571897
 20
5269.04511239798
 30
4.803766308176868
 70
    32
  0
VERTEX
  5
1F25
  8
FELÜLNÉZET
 10
2906.777025773783
 20
5277.917321351353
 30
4.764732138911953
 70
    32
  0
VERTEX
  5
1F26
  8
FELÜLNÉZET
 10
2941.927997848278
 20
5287.030150873979
 30
4.73238080544095
 70
    32
  0
VERTEX
  5
1F27
  8
FELÜLNÉZET
 10
2976.967460969902
 20
5296.431725079708
 30
4.708048874922641
 70
    32
  0
VERTEX
  5
1F28
  8
FELÜLNÉZET
 10
3011.876830313177
 20
5306.170168082391
 30
4.69307291451581
 70
    32
  0
VERTEX
  5
1F29
  8
FELÜLNÉZET
 10
3046.637521052626
 20
5316.293603995877
 30
4.688789491379236
 70
    32
  0
VERTEX
  5
1F2A
  8
FELÜLNÉZET
 10
3081.230948362769
 20
5326.850156934018
 30
4.696535172671704
 70
    32
  0
VERTEX
  5
1F2B
  8
FELÜLNÉZET
 10
3115.638527418128
 20
5337.887951010663
 30
4.717646525551996
 70
    32
  0
VERTEX
  5
1F2C
  8
FELÜLNÉZET
 10
3149.841673393225
 20
5349.455110339662
 30
4.753460117178894
 70
    32
  0
VERTEX
  5
1F2D
  8
FELÜLNÉZET
 10
3183.821801462582
 20
5361.59975903487
 30
4.805312514711181
 70
    32
  0
VERTEX
  5
1F2E
  8
FELÜLNÉZET
 10
3217.560326800719
 20
5374.370021210132
 30
4.874540285307638
 70
    32
  0
VERTEX
  5
1F2F
  8
FELÜLNÉZET
 10
3251.038664582159
 20
5387.814020979302
 30
4.962479996127049
 70
    32
  0
VERTEX
  5
1F30
  8
FELÜLNÉZET
 10
3284.241056734372
 20
5401.972643277315
 30
5.070002658419682
 70
    32
  0
VERTEX
  5
1F31
  8
FELÜLNÉZET
 10
3317.189358961165
 20
5416.790445959449
 30
5.19178443155789
 70
    32
  0
VERTEX
  5
1F32
  8
FELÜLNÉZET
 10
3349.932159693461
 20
5432.14352564722
 30
5.318098692186208
 70
    32
  0
VERTEX
  5
1F33
  8
FELÜLNÉZET
 10
3382.518618041837
 20
5447.90651747887
 30
5.439124828089683
 70
    32
  0
VERTEX
  5
1F34
  8
FELÜLNÉZET
 10
3414.997893116873
 20
5463.954056592651
 30
5.54504222705337
 70
    32
  0
VERTEX
  5
1F35
  8
FELÜLNÉZET
 10
3447.419144029147
 20
5480.160778126809
 30
5.626030276862322
 70
    32
  0
VERTEX
  5
1F36
  8
FELÜLNÉZET
 10
3479.831529889238
 20
5496.401317219589
 30
5.672268365301586
 70
    32
  0
VERTEX
  5
1F37
  8
FELÜLNÉZET
 10
3512.284209807724
 20
5512.550309009242
 30
5.673935880156217
 70
    32
  0
VERTEX
  5
1F38
  8
FELÜLNÉZET
 10
3544.826342895185
 20
5528.482388634014
 30
5.621212209211268
 70
    32
  0
VERTEX
  5
1F39
  8
FELÜLNÉZET
 10
3577.507088262199
 20
5544.072191232151
 30
5.504276740251787
 70
    32
  0
VERTEX
  5
1F3A
  8
FELÜLNÉZET
 10
3610.375605019344
 20
5559.194351941903
 30
5.313308861062827
 70
    32
  0
VERTEX
  5
1F3B
  8
FELÜLNÉZET
 10
3643.4810522772
 20
5573.723505901514
 30
5.03848795942944
 70
    32
  0
VERTEX
  5
1F3C
  8
FELÜLNÉZET
 10
3676.86372322509
 20
5587.556972512933
 30
4.673152126943968
 70
    32
  0
VERTEX
  5
1F3D
  8
FELÜLNÉZET
 10
3710.513207049664
 20
5600.721801967992
 30
4.228704010670733
 70
    32
  0
VERTEX
  5
1F3E
  8
FELÜLNÉZET
 10
3744.401098016137
 20
5613.291086097214
 30
3.722957393664611
 70
    32
  0
VERTEX
  5
1F3F
  8
FELÜLNÉZET
 10
3778.498969028185
 20
5625.337971386552
 30
3.173733669557209
 70
    32
  0
VERTEX
  5
1F40
  8
FELÜLNÉZET
 10
3812.778392989486
 20
5636.935604321966
 30
2.598854231980141
 70
    32
  0
VERTEX
  5
1F41
  8
FELÜLNÉZET
 10
3847.210942803717
 20
5648.157131389412
 30
2.01614047456502
 70
    32
  0
VERTEX
  5
1F42
  8
FELÜLNÉZET
 10
3881.768191374555
 20
5659.075699074844
 30
1.443413790943458
 70
    32
  0
VERTEX
  5
1F43
  8
FELÜLNÉZET
 10
3916.421711605676
 20
5669.764453864222
 30
0.8984955747470655
 70
    32
  0
VERTEX
  5
1F44
  8
FELÜLNÉZET
 10
3951.143076400759
 20
5680.296542243498
 30
0.3992072196074563
 70
    32
  0
VERTEX
  5
1F45
  8
FELÜLNÉZET
 10
3985.903863766184
 20
5690.745092091216
 30
-0.0366322410239761
 70
    32
  0
VERTEX
  5
1F46
  8
FELÜLNÉZET
 10
4020.684384043933
 20
5701.151388137217
 30
-0.3952427850902533
 70
    32
  0
VERTEX
  5
1F47
  8
FELÜLNÉZET
 10
4055.491576299081
 20
5711.459611377795
 30
-0.6751611086448018
 70
    32
  0
VERTEX
  5
1F48
  8
FELÜLNÉZET
 10
4090.33743737379
 20
5721.595499227223
 30
-0.8772633069842629
 70
    32
  0
VERTEX
  5
1F49
  8
FELÜLNÉZET
 10
4125.233964110226
 20
5731.484789099766
 30
-1.002425475405277
 70
    32
  0
VERTEX
  5
1F4A
  8
FELÜLNÉZET
 10
4160.193153350551
 20
5741.053218409695
 30
-1.051523709204487
 70
    32
  0
VERTEX
  5
1F4B
  8
FELÜLNÉZET
 10
4195.22700193693
 20
5750.226524571276
 30
-1.025434103678531
 70
    32
  0
VERTEX
  5
1F4C
  8
FELÜLNÉZET
 10
4230.347506711523
 20
5758.93044499878
 30
-0.9250327541240532
 70
    32
  0
VERTEX
  5
1F4D
  8
FELÜLNÉZET
 10
4265.566664516497
 20
5767.090717106475
 30
-0.7511957558376929
 70
    32
  0
VERTEX
  5
1F4E
  8
FELÜLNÉZET
 10
4300.896472194015
 20
5774.633078308629
 30
-0.504799204116092
 70
    32
  0
VERTEX
  5
1F4F
  8
FELÜLNÉZET
 10
4336.348926586238
 20
5781.483266019512
 30
-0.1867191942558915
 70
    32
  0
VERTEX
  5
1F50
  8
FELÜLNÉZET
 10
4371.935439475469
 20
5787.570477633347
 30
0.2020164425210531
 70
    32
  0
VERTEX
  5
1F51
  8
FELÜLNÉZET
 10
4407.653790589876
 20
5792.904529019733
 30
0.6568443866065277
 70
    32
  0
VERTEX
  5
1F52
  8
FELÜLNÉZET
 10
4443.488029284746
 20
5797.576435969897
 30
1.169640330931758
 70
    32
  0
VERTEX
  5
1F53
  8
FELÜLNÉZET
 10
4479.421600191441
 20
5801.680790546156
 30
1.73212313260535
 70
    32
  0
VERTEX
  5
1F54
  8
FELÜLNÉZET
 10
4515.437947941326
 20
5805.312184810829
 30
2.336011648735912
 70
    32
  0
VERTEX
  5
1F55
  8
FELÜLNÉZET
 10
4551.520517165762
 20
5808.565210826233
 30
2.973024736432048
 70
    32
  0
VERTEX
  5
1F56
  8
FELÜLNÉZET
 10
4587.652752496111
 20
5811.534460654684
 30
3.634881252802365
 70
    32
  0
VERTEX
  5
1F57
  8
FELÜLNÉZET
 10
4623.818098563735
 20
5814.314526358501
 30
4.31330005495547
 70
    32
  0
VERTEX
  5
1F58
  8
FELÜLNÉZET
 10
4660.0
 20
5817.0
 30
5.0
 70
    32
  0
SEQEND
  5
1FAE
  8
FELÜLNÉZET
  0
POLYLINE
  5
1D45
  8
FELÜLNÉZET
 10
0.0
 20
0.0
 30
0.0
 66
     1
 70
     8
  0
VERTEX
  5
1F59
  8
FELÜLNÉZET
 10
2730.0
 20
8765.0
 30
5.0
 70
    32
  0
VERTEX
  5
1F5A
  8
FELÜLNÉZET
 10
2765.429744456671
 20
8756.609032185133
 30
4.94760015914726
 70
    32
  0
VERTEX
  5
1F5B
  8
FELÜLNÉZET
 10
2800.840904087862
 20
8748.169940256412
 30
4.896536885453305
 70
    32
  0
VERTEX
  5
1F5C
  8
FELÜLNÉZET
 10
2836.214894068098
 20
8739.634600099993
 30
4.848146746076913
 70
    32
  0
VERTEX
  5
1F5D
  8
FELÜLNÉZET
 10
2871.533129571897
 20
8730.954887602022
 30
4.803766308176868
 70
    32
  0
VERTEX
  5
1F5E
  8
FELÜLNÉZET
 10
2906.777025773784
 20
8722.082678648647
 30
4.764732138911953
 70
    32
  0
VERTEX
  5
1F5F
  8
FELÜLNÉZET
 10
2941.927997848278
 20
8712.969849126022
 30
4.73238080544095
 70
    32
  0
VERTEX
  5
1F60
  8
FELÜLNÉZET
 10
2976.967460969902
 20
8703.568274920293
 30
4.708048874922641
 70
    32
  0
VERTEX
  5
1F61
  8
FELÜLNÉZET
 10
3011.876830313178
 20
8693.82983191761
 30
4.69307291451581
 70
    32
  0
VERTEX
  5
1F62
  8
FELÜLNÉZET
 10
3046.637521052626
 20
8683.706396004123
 30
4.688789491379236
 70
    32
  0
VERTEX
  5
1F63
  8
FELÜLNÉZET
 10
3081.23094836277
 20
8673.149843065983
 30
4.696535172671704
 70
    32
  0
VERTEX
  5
1F64
  8
FELÜLNÉZET
 10
3115.638527418128
 20
8662.112048989338
 30
4.717646525551996
 70
    32
  0
VERTEX
  5
1F65
  8
FELÜLNÉZET
 10
3149.841673393225
 20
8650.544889660338
 30
4.753460117178894
 70
    32
  0
VERTEX
  5
1F66
  8
FELÜLNÉZET
 10
3183.821801462582
 20
8638.400240965131
 30
4.805312514711181
 70
    32
  0
VERTEX
  5
1F67
  8
FELÜLNÉZET
 10
3217.560326800719
 20
8625.629978789868
 30
4.874540285307638
 70
    32
  0
VERTEX
  5
1F68
  8
FELÜLNÉZET
 10
3251.038664582159
 20
8612.1859790207
 30
4.962479996127049
 70
    32
  0
VERTEX
  5
1F69
  8
FELÜLNÉZET
 10
3284.241056734372
 20
8598.027356722685
 30
5.070002658419683
 70
    32
  0
VERTEX
  5
1F6A
  8
FELÜLNÉZET
 10
3317.189358961165
 20
8583.209554040552
 30
5.191784431557891
 70
    32
  0
VERTEX
  5
1F6B
  8
FELÜLNÉZET
 10
3349.932159693461
 20
8567.85647435278
 30
5.318098692186208
 70
    32
  0
VERTEX
  5
1F6C
  8
FELÜLNÉZET
 10
3382.518618041837
 20
8552.09348252113
 30
5.439124828089684
 70
    32
  0
VERTEX
  5
1F6D
  8
FELÜLNÉZET
 10
3414.997893116873
 20
8536.04594340735
 30
5.545042227053371
 70
    32
  0
VERTEX
  5
1F6E
  8
FELÜLNÉZET
 10
3447.419144029147
 20
8519.839221873191
 30
5.626030276862322
 70
    32
  0
VERTEX
  5
1F6F
  8
FELÜLNÉZET
 10
3479.831529889237
 20
8503.598682780412
 30
5.672268365301587
 70
    32
  0
VERTEX
  5
1F70
  8
FELÜLNÉZET
 10
3512.284209807724
 20
8487.44969099076
 30
5.673935880156218
 70
    32
  0
VERTEX
  5
1F71
  8
FELÜLNÉZET
 10
3544.826342895185
 20
8471.517611365987
 30
5.621212209211268
 70
    32
  0
VERTEX
  5
1F72
  8
FELÜLNÉZET
 10
3577.507088262198
 20
8455.927808767849
 30
5.504276740251787
 70
    32
  0
VERTEX
  5
1F73
  8
FELÜLNÉZET
 10
3610.375605019343
 20
8440.8056480581
 30
5.313308861062827
 70
    32
  0
VERTEX
  5
1F74
  8
FELÜLNÉZET
 10
3643.481052277199
 20
8426.276494098487
 30
5.03848795942944
 70
    32
  0
VERTEX
  5
1F75
  8
FELÜLNÉZET
 10
3676.863723225089
 20
8412.443027487067
 30
4.673152126943968
 70
    32
  0
VERTEX
  5
1F76
  8
FELÜLNÉZET
 10
3710.513207049663
 20
8399.278198032009
 30
4.228704010670733
 70
    32
  0
VERTEX
  5
1F77
  8
FELÜLNÉZET
 10
3744.401098016136
 20
8386.708913902788
 30
3.722957393664609
 70
    32
  0
VERTEX
  5
1F78
  8
FELÜLNÉZET
 10
3778.498969028185
 20
8374.66202861345
 30
3.173733669557207
 70
    32
  0
VERTEX
  5
1F79
  8
FELÜLNÉZET
 10
3812.778392989486
 20
8363.064395678035
 30
2.598854231980139
 70
    32
  0
VERTEX
  5
1F7A
  8
FELÜLNÉZET
 10
3847.210942803717
 20
8351.842868610589
 30
2.016140474565018
 70
    32
  0
VERTEX
  5
1F7B
  8
FELÜLNÉZET
 10
3881.768191374555
 20
8340.924300925157
 30
1.443413790943455
 70
    32
  0
VERTEX
  5
1F7C
  8
FELÜLNÉZET
 10
3916.421711605677
 20
8330.235546135778
 30
0.8984955747470629
 70
    32
  0
VERTEX
  5
1F7D
  8
FELÜLNÉZET
 10
3951.143076400759
 20
8319.703457756501
 30
0.3992072196074534
 70
    32
  0
VERTEX
  5
1F7E
  8
FELÜLNÉZET
 10
3985.903863766185
 20
8309.254907908784
 30
-0.0366322410239788
 70
    32
  0
VERTEX
  5
1F7F
  8
FELÜLNÉZET
 10
4020.684384043933
 20
8298.848611862784
 30
-0.3952427850902558
 70
    32
  0
VERTEX
  5
1F80
  8
FELÜLNÉZET
 10
4055.491576299081
 20
8288.540388622203
 30
-0.6751611086448043
 70
    32
  0
VERTEX
  5
1F81
  8
FELÜLNÉZET
 10
4090.337437373791
 20
8278.404500772778
 30
-0.877263306984265
 70
    32
  0
VERTEX
  5
1F82
  8
FELÜLNÉZET
 10
4125.233964110226
 20
8268.515210900236
 30
-1.002425475405279
 70
    32
  0
VERTEX
  5
1F83
  8
FELÜLNÉZET
 10
4160.193153350552
 20
8258.946781590306
 30
-1.051523709204488
 70
    32
  0
VERTEX
  5
1F84
  8
FELÜLNÉZET
 10
4195.22700193693
 20
8249.773475428725
 30
-1.025434103678532
 70
    32
  0
VERTEX
  5
1F85
  8
FELÜLNÉZET
 10
4230.347506711523
 20
8241.06955500122
 30
-0.925032754124054
 70
    32
  0
VERTEX
  5
1F86
  8
FELÜLNÉZET
 10
4265.566664516497
 20
8232.909282893526
 30
-0.7511957558376938
 70
    32
  0
VERTEX
  5
1F87
  8
FELÜLNÉZET
 10
4300.896472194014
 20
8225.366921691371
 30
-0.5047992041160928
 70
    32
  0
VERTEX
  5
1F88
  8
FELÜLNÉZET
 10
4336.348926586238
 20
8218.516733980488
 30
-0.1867191942558915
 70
    32
  0
VERTEX
  5
1F89
  8
FELÜLNÉZET
 10
4371.935439475469
 20
8212.429522366654
 30
0.2020164425210533
 70
    32
  0
VERTEX
  5
1F8A
  8
FELÜLNÉZET
 10
4407.653790589876
 20
8207.095470980268
 30
0.6568443866065281
 70
    32
  0
VERTEX
  5
1F8B
  8
FELÜLNÉZET
 10
4443.488029284745
 20
8202.423564030103
 30
1.169640330931759
 70
    32
  0
VERTEX
  5
1F8C
  8
FELÜLNÉZET
 10
4479.421600191442
 20
8198.319209453844
 30
1.732123132605351
 70
    32
  0
VERTEX
  5
1F8D
  8
FELÜLNÉZET
 10
4515.437947941326
 20
8194.687815189172
 30
2.336011648735913
 70
    32
  0
VERTEX
  5
1F8E
  8
FELÜLNÉZET
 10
4551.520517165762
 20
8191.434789173767
 30
2.973024736432048
 70
    32
  0
VERTEX
  5
1F8F
  8
FELÜLNÉZET
 10
4587.652752496111
 20
8188.465539345316
 30
3.634881252802366
 70
    32
  0
VERTEX
  5
1F90
  8
FELÜLNÉZET
 10
4623.818098563735
 20
8185.685473641499
 30
4.31330005495547
 70
    32
  0
VERTEX
  5
1F91
  8
FELÜLNÉZET
 10
4660.0
 20
8183.0
 30
5.0
 70
    32
  0
SEQEND
  5
1FAD
  8
FELÜLNÉZET
  0
LINE
  5
1D46
  8
FELÜLNÉZET
 10
16350.0
 20
5865.0
 30
0.0
 11
16350.0
 21
4465.0
 31
0.0
  0
LINE
  5
1D47
  8
FELÜLNÉZET
 10
15450.0
 20
5865.0
 30
0.0
 11
15450.0
 21
4465.0
 31
0.0
  0
LINE
  5
1D48
  8
FELÜLNÉZET
 10
14490.0
 20
5865.0
 30
0.0
 11
14490.0
 21
4465.0
 31
0.0
  0
LINE
  5
1D49
  8
FELÜLNÉZET
 10
14140.0
 20
5865.0
 30
5.0
 11
14140.0
 21
4465.0
 31
1.312487182742354
  0
LINE
  5
1D4A
  8
FELÜLNÉZET
 10
14140.0
 20
4465.0
 30
1.312487182742354
 11
14490.0
 21
4465.0
 31
0.0
  0
LINE
  5
1D4B
  8
FELÜLNÉZET
 10
14490.0
 20
4465.0
 30
0.0
 11
15450.0
 21
4465.0
 31
0.0
  0
LINE
  5
1D4C
  8
FELÜLNÉZET
 10
15450.0
 20
4465.0
 30
0.0
 11
16350.0
 21
4465.0
 31
0.0
  0
LINE
  5
1D4D
  8
FELÜLNÉZET
 10
4685.0
 20
5767.0
 30
5.0
 11
4685.0
 21
5717.0
 31
0.0
  0
LINE
  5
1D4E
  8
FELÜLNÉZET
 10
4635.0
 20
5767.0
 30
5.0
 11
4635.0
 21
5717.0
 31
0.0
  0
LINE
  5
1D4F
  8
FELÜLNÉZET
 10
6520.0
 20
5767.0
 30
0.0
 11
6520.0
 21
5717.0
 31
0.0
  0
LINE
  5
1D50
  8
FELÜLNÉZET
 10
6570.0
 20
5767.0
 30
0.0
 11
6570.0
 21
5717.0
 31
0.0
  0
LINE
  5
1D51
  8
FELÜLNÉZET
 10
8155.0
 20
5767.0
 30
0.0
 11
8155.0
 21
5717.0
 31
0.0
  0
LINE
  5
1D52
  8
FELÜLNÉZET
 10
8205.0
 20
5767.0
 30
0.0
 11
8205.0
 21
5717.0
 31
0.0
  0
LINE
  5
1D53
  8
FELÜLNÉZET
 10
9655.0
 20
5767.0
 30
-4.997677248288658
 11
9655.0
 21
5717.0
 31
-9.997677248288658
  0
LINE
  5
1D54
  8
FELÜLNÉZET
 10
9705.0
 20
5767.0
 30
-4.997677248288658
 11
9705.0
 21
5717.0
 31
-9.997677248288658
  0
LINE
  5
1D55
  8
FELÜLNÉZET
 10
12235.0
 20
5767.0
 30
-4.997677248288658
 11
12235.0
 21
5717.0
 31
-9.997677248288658
  0
LINE
  5
1D56
  8
FELÜLNÉZET
 10
12285.0
 20
5767.0
 30
-4.997677248288658
 11
12285.0
 21
5717.0
 31
-9.997677248288658
  0
LINE
  5
1D57
  8
FELÜLNÉZET
 10
12285.0
 20
5767.0
 30
-4.997666014776446
 11
12285.0
 21
5717.0
 31
-4.997666014776446
  0
LINE
  5
1D58
  8
FELÜLNÉZET
 10
12335.0
 20
5767.0
 30
-4.997666014776446
 11
12335.0
 21
5717.0
 31
-4.997666014776446
  0
LINE
  5
1D59
  8
FELÜLNÉZET
 10
4635.0
 20
5717.0
 30
0.0
 11
4685.0
 21
5717.0
 31
0.0
  0
LINE
  5
1D5A
  8
FELÜLNÉZET
 10
4685.0
 20
5767.0
 30
5.0
 11
4635.0
 21
5767.0
 31
5.0
  0
LINE
  5
1D5C
  8
FELÜLNÉZET
 10
6570.0
 20
5717.0
 30
0.0
 11
6520.0
 21
5717.0
 31
0.0
  0
LINE
  5
1D5D
  8
FELÜLNÉZET
 10
6570.0
 20
5767.0
 30
0.0
 11
6520.0
 21
5767.0
 31
0.0
  0
LINE
  5
1D5E
  8
FELÜLNÉZET
 10
8205.0
 20
5717.0
 30
0.0
 11
8155.0
 21
5717.0
 31
0.0
  0
LINE
  5
1D5F
  8
FELÜLNÉZET
 10
8205.0
 20
5767.0
 30
0.0
 11
8155.0
 21
5767.0
 31
0.0
  0
LINE
  5
1D60
  8
FELÜLNÉZET
 10
9705.0
 20
5717.0
 30
-9.997677248288658
 11
9655.0
 21
5717.0
 31
-9.997677248288658
  0
LINE
  5
1D61
  8
FELÜLNÉZET
 10
9705.0
 20
5767.0
 30
-4.997677248288658
 11
9655.0
 21
5767.0
 31
-4.997677248288658
  0
LINE
  5
1D62
  8
FELÜLNÉZET
 10
12335.0
 20
5717.0
 30
-4.997666014776446
 11
12285.0
 21
5717.0
 31
-9.997677248288658
  0
LINE
  5
1D63
  8
FELÜLNÉZET
 10
12285.0
 20
5717.0
 30
-9.997677248288658
 11
12235.0
 21
5717.0
 31
-9.997677248288658
  0
LINE
  5
1D64
  8
FELÜLNÉZET
 10
12235.0
 20
5767.0
 30
-4.997677248288658
 11
12285.0
 21
5767.0
 31
-4.997677248288658
  0
LINE
  5
1D65
  8
FELÜLNÉZET
 10
12285.0
 20
5767.0
 30
-4.997677248288658
 11
12335.0
 21
5767.0
 31
-4.997666014776446
  0
LINE
  5
1D66
  8
FELÜLNÉZET
 10
12335.0
 20
8233.0
 30
-4.997666014776446
 11
12335.0
 21
8283.0
 31
-4.997666014776446
  0
LINE
  5
1D67
  8
FELÜLNÉZET
 10
12285.0
 20
8233.0
 30
-4.997666014776446
 11
12285.0
 21
8283.0
 31
-4.997666014776446
  0
LINE
  5
1D68
  8
FELÜLNÉZET
 10
12285.0
 20
8233.0
 30
-4.997677248288658
 11
12285.0
 21
8283.0
 31
-9.997677248288658
  0
LINE
  5
1D69
  8
FELÜLNÉZET
 10
12235.0
 20
8233.0
 30
-4.997677248288658
 11
12235.0
 21
8283.0
 31
-9.997677248288658
  0
LINE
  5
1D6A
  8
FELÜLNÉZET
 10
9705.0
 20
8233.0
 30
-4.997677248288658
 11
9705.0
 21
8283.0
 31
-9.997677248288658
  0
LINE
  5
1D6B
  8
FELÜLNÉZET
 10
9655.0
 20
8233.0
 30
-4.997677248288658
 11
9655.0
 21
8283.0
 31
-9.997677248288658
  0
LINE
  5
1D6C
  8
FELÜLNÉZET
 10
8205.0
 20
8233.0
 30
0.0
 11
8205.0
 21
8283.0
 31
0.0
  0
LINE
  5
1D6D
  8
FELÜLNÉZET
 10
8155.0
 20
8233.0
 30
0.0
 11
8155.0
 21
8283.0
 31
0.0
  0
LINE
  5
1D6E
  8
FELÜLNÉZET
 10
6570.0
 20
8233.0
 30
0.0
 11
6570.0
 21
8283.0
 31
0.0
  0
LINE
  5
1D6F
  8
FELÜLNÉZET
 10
6520.0
 20
8233.0
 30
0.0
 11
6520.0
 21
8283.0
 31
0.0
  0
LINE
  5
1D70
  8
FELÜLNÉZET
 10
4635.0
 20
8233.0
 30
5.0
 11
4635.0
 21
8283.0
 31
0.0
  0
LINE
  5
1D71
  8
FELÜLNÉZET
 10
4685.0
 20
8233.0
 30
5.0
 11
4685.0
 21
8283.0
 31
0.0
  0
LINE
  5
1D72
  8
FELÜLNÉZET
 10
4635.0
 20
8283.0
 30
0.0
 11
4685.0
 21
8283.0
 31
0.0
  0
LINE
  5
1D73
  8
FELÜLNÉZET
 10
4685.0
 20
8233.0
 30
5.0
 11
4635.0
 21
8233.0
 31
5.0
  0
LINE
  5
1D74
  8
FELÜLNÉZET
 10
6570.0
 20
8283.0
 30
0.0
 11
6520.0
 21
8283.0
 31
0.0
  0
LINE
  5
1D75
  8
FELÜLNÉZET
 10
6570.0
 20
8233.0
 30
0.0
 11
6520.0
 21
8233.0
 31
0.0
  0
LINE
  5
1D76
  8
FELÜLNÉZET
 10
8205.0
 20
8283.0
 30
0.0
 11
8155.0
 21
8283.0
 31
0.0
  0
LINE
  5
1D77
  8
FELÜLNÉZET
 10
8205.0
 20
8233.0
 30
0.0
 11
8155.0
 21
8233.0
 31
0.0
  0
LINE
  5
1D78
  8
FELÜLNÉZET
 10
9705.0
 20
8283.0
 30
-9.997677248288658
 11
9655.0
 21
8283.0
 31
-9.997677248288658
  0
LINE
  5
1D79
  8
FELÜLNÉZET
 10
9705.0
 20
8233.0
 30
-4.997677248288658
 11
9655.0
 21
8233.0
 31
-4.997677248288658
  0
LINE
  5
1D7A
  8
FELÜLNÉZET
 10
12335.0
 20
8283.0
 30
-4.997666014776446
 11
12285.0
 21
8283.0
 31
-9.997677248288658
  0
LINE
  5
1D7B
  8
FELÜLNÉZET
 10
12285.0
 20
8283.0
 30
-9.997677248288658
 11
12235.0
 21
8283.0
 31
-9.997677248288658
  0
LINE
  5
1D7C
  8
FELÜLNÉZET
 10
12235.0
 20
8233.0
 30
-4.997677248288658
 11
12285.0
 21
8233.0
 31
-4.997677248288658
  0
LINE
  5
1D7D
  8
FELÜLNÉZET
 10
12285.0
 20
8233.0
 30
-4.997677248288658
 11
12335.0
 21
8233.0
 31
-4.997666014776446
  0
VIEWPORT
  5
1B5F
 67
     1
  8
0
 10
114.5
 20
81.0
 30
0.0
 40
274.8
 41
194.4
 68
     1
 69
    -1
1001
ACAD
1000
MVIEW
1002
{
1070
    16
1010
0.0
1020
0.0
1030
0.0
1020
0.0
1030
0.0
1010
0.0
1020
0.0
1030
1.0
1020
0.0
1030
1.0
1040
0.0
1040
194.4
1040
114.5
1040
81.0
1040
50.0
1040
0.0
1040
0.0
1070
     0
1070
   100
1070
     0
1070
     3
1070
     0
1070
     0
1070
     0
1070
     0
1040
0.0
1040
0.0
1040
0.0
1040
0.5
1040
0.5
1040
0.0
1040
0.0
1070
     0
1002
{
1002
}
1002
}
  0
VIEWPORT
  5
1B60
 67
     1
  8
0
 10
114.5
 20
81.0
 30
0.0
 40
183.2
 41
129.6
 68
     2
 69
    -1
1001
ACAD
1000
MVIEW
1002
{
1070
    16
1010
0.0
1020
0.0
1030
0.0
1020
0.0
1030
0.0
1010
0.0
1020
0.0
1030
1.0
1020
0.0
1030
1.0
1040
0.0
1040
14431.44104803493
1040
10000.0
1040
2500.0
1040
50.0
1040
0.0
1040
0.0
1070
     0
1070
   100
1070
     0
1070
     3
1070
     0
1070
     0
1070
     0
1070
     0
1040
0.0
1040
0.0
1040
0.0
1040
0.5
1040
0.5
1040
0.0
1040
0.0
1070
     0
1002
{
1002
}
1002
}
  0
ENDSEC
  0
EOF
